20120830

THE BASEBALLS UMBRELLA TAB (INTRO)


There is a short video how to play the intro part of The Baseballs - Umbrella.
Use the neck pick-ups and turn up your tube amplifier to get the original sound. 
TAB below.



THE BASEBALLS UMBRELLA INTRO TAB


e-----------------------------------------------------------------------B-----------------------------------------------------------------------
G---------------------(4)/5---------------------------------------------
D-------(4)/5----8----------8-5--------------------(4)/5----------------
A--6---------------------------------(4)/5----8----------8-5------------
E-------------------------------6---------------------------------------


e-----------------------------------------------------------------------B-----------------------------------------------------------------------
G-----------------------------------------------------------------------
D--0----(3)/4----7----(7)/8-7-4-----------------------------------------
A-----------------------------------------5----(5)/6-5------------------
E-------------------------------3----6-----------------6----------------