20120913

CRAZY LITTLE THING CALLED LOVE SOLO TAB AND LESSON

Short guitar lesson how to play the Brian May solo of Crazy little thing called love.
He plays it with a Fender Telecaster (neck pick-up) and uses his Vox AC30tube Amp. Thats one of the secrets of this cool sound. The rest is in your hands ...
TAB helps below.


QUEEN CRAZY LITTLE THING CALLED LOVE TAB                       Printable tab here

e-/10---10-10---10-10---10----------------------------------------------
H-/10---10-10---10-10---10-13(15)--(15)--(15)(13)p11-13-11~-------------
G-----------------------------------------------------------------------
D-----------------------------------------------------------------------
A-----------------------------------------------------------------------
E-----------------------------------------------------------------------


e-------13.----/10---10-10.--------------------------10-10.-------------
H-13(15)-------/10---10-10.--12---10-----------10-12----10.-------------
G----------------------------12------11.--10h11-------------------------
D-----------------------------------------------------------------------
A-----------------------------------------------------------------------
E-----------------------------------------------------------------------


e---------13------13-------------------------------13.------------------
H-13(15)----13(15)--(15)(13)p11-13.-11-------13(15)---------------------
G-----------------------------------------------------------------------
D-----------------------------------------------------------------------
A-----------------------------------------------------------------------
E-----------------------------------------------------------------------


e-----------------------------------------------------------------------
H-16/17---17-15---17----------------------------------------------------
G-15/16---16--------16(17)---14-------14.---14.---16(17)(16)p14-16-14~--
D------------------------------16---14----------------------------------
A-----------------------------------------------------------------------
E-----------------------------------------------------------------------