20120917

SWEET HOME ALABAMA 1ST SOLO GUITAR TAB


"Here I come....." Lets check out how to play the famous Sweet home Alabama guitar solo by Lynyrd Skynyrd. Take your Fender Stratocaster, set the bridge-middle mixed pick-up and let's rock it! TAB helps below.



SWEET HOME ALABAMA SOLO TAB                                              Printable tab here


e-15(17)-----15~----14--------------------------------------------------
H----------------------15------15~----15----13--------------------------
G-------------------------14.------------14---15-14-12-14----12~--------
D---------------------------------------------------------14------------
A-----------------------------------------------------------------------
E-----------------------------------------------------------------------


e-------------------------------------------------3-5---3---------------
H--------------------------8-10-8-10'-----3---4h5-----5-----------------
G-12-14----14'---------7h9----------------------------------------------
D-------12--------------------------------------------------------------
A-----------------------------------------------------------------------
E-----------------------------------------------------------------------


e-3(4)(3)-3-3------3----------------------------------------------------
H------------5\3/5---5--------------------------------------------------
G----------------------4h5p4--------------------------------------------
D---------------------------5-0-----------------------------------------
A---------------------------------5\3/5~~~------------------------------
E-----------------------------------------------------------------------



Are you satisfied with this guitar tab? Send your idea which song or guitar riff should be the next for tabbing by making a TAB REQUEST HERE


SEE ALSO

SWEET HOME ALABAMA BIG SOLO TAB by Hutgreen



SWEET HOME CHICAGO SOLO TAB by the Blues Brothers