20120917

SWEET HOME ALABAMA 1ST SOLO GUITAR TAB


"Here I come....."
Lets check how to play the famous Sweet Home Alabama guitar solo by Lynyrd Skynyrd.
Take your Fender Stratocaster, set the bridge-middle mixed pick-up and rock it!
TAB helps below.



SWEET HOME ALABAMA SOLO TAB


e-15(17)-----15~----14--------------------------------------------------
B----------------------15------15~----15----13--------------------------
G-------------------------14.------------14---15-14-12-14----12~--------
D---------------------------------------------------------14------------
A-----------------------------------------------------------------------
E-----------------------------------------------------------------------


e-------------------------------------------------3-5---3---------------

B--------------------------8-10-8-10'-----3---4h5-----5-----------------
G-12-14----14'---------7h9----------------------------------------------
D-------12--------------------------------------------------------------
A-----------------------------------------------------------------------
E-----------------------------------------------------------------------


e-5(7)(5)-3-3------3----------------------------------------------------

B------------5\3/5---5--------------------------------------------------
G----------------------4h5p4--------------------------------------------
D---------------------------5-0-----------------------------------------
A---------------------------------5\3/5~~~------------------------------
E-----------------------------------------------------------------------