20120903

THE BASEBALLS - ANGELS TAB (INTRO)


This is a short lesson how to play the intro part of The Baseballs - Angels.
TAB helps below.



THE BASEBALLS ANGELS TAB


e-----------------------------------------------------------------------B-----------------------------------------------------------------------
G-----------------------------------------------------------------------
D-----4/5---8.---------5.-------------------5.--------------------------
A-6--------------6.--8-----8-6.---3---5/6--------3.--5-6.--5-3.---------
E-----------------------------------------------------------------------


e-----------------------------------------------------------------------B-----------------------------------------------------------------------
G-----------------------------------------------------------------------
D-----------------------------------------------------------------------
A-----2/3---6.---------3.-------------4/5---8.---------5.---------------
E-4--------------4.--6-----6-4.---6--------------6.--8-----8-6.---------