20120912

BOB MARLEY WAITING IN VAIN SOLO TAB

This is the famous guitar solo of Bob Marley - Waiting in vain. The song was recorded in 1977 (on the EXODUS album) and the solo was played by Junior Marvin with a Les Paul guitar. Marvin used a clean sound with some reverb, thats why it sounds so awesome. Respect for those who can play the fast part at the end.
TAB helps below.


BOB MARLEY WAITING IN VAIN SOLO TAB                                   Printable tab here


e-----------------------------------------------------------------------
H-----------------------------------------------------------------------
G-------------------------------13.-15~~--------------------------------
D-------------------13.---13/15-----------------------------------------
A-------11.---13/15-----------------------------------------------------
E-11/13-----------------------------------------------------------------


e-----------------------------------------------------------------------
H---13---14.---16.---14p13------13--------------------------------------
G-15-------------------------15----13/15-13~----------------------------
D-----------------------------------------------------------------------
A-----------------------------------------------------------------------
E-----------------------------------------------------------------------


e--------------------------------13-------------------------------------
H-------------------------------------16(18)~~--------------------------
G-(16)(15)---13-15---13.---13~------------------------------------------
D-----------------------------------------------------------------------
A-----------------------------------------------------------------------
E-----------------------------------------------------------------------


e-13--------------------------------------------------------------------
H----16-13-------16-----------------------------------------------------
G----------16/17----17\15-13-15(16).--15.--15-13-15-13~-----------------
D-----------------------------------------------------------------------
A-----------------------------------------------------------------------
E-----------------------------------------------------------------------


e-----------------------------------------------------------------------
H---------------------------------13--13--------------------------------
G------------------13--13-15-13-15--15----------------------------------
D---13--13-15-13-15--15-------------------------------------------------
A-15--15----------------------------------------------------------------
E-----------------------------------------------------------------------


e---------13--13-16-13-16-16(18).-16.-16-13.-13\------------------------
H-16-13-16--16----------------------------------------------------------
G-----------------------------------------------------------------------
D-----------------------------------------------------------------------
A-----------------------------------------------------------------------
E-----------------------------------------------------------------------




SEE ALSO

NO WOMAN NO CRY SOLO TAB by Bob Marley



STIR IT UP SOLO TAB by Bob Marley



CONCRETE JUNGLE SOLO TAB by Bob Marley 



    MAKE YOUR GUITAR TAB REQUEST HERE