20120912

BOB MARLEY WAITING IN VAIN SOLO TAB

This is the famous guitar solo of Bob Marley - Waiting in vain. The song was recorded in 1977 (on the EXODUS album) and the solo was played by Junior Marvin.
He used a Les Paul guitar with some reverb, thats why it sounds so awesome.
TAB helps below.



BOB MARLEY WAITING IN VAIN SOLO TAB


e-----------------------------------------------------------------------B-----------------------------------------------------------------------
G-------------------------------13.-15~~--------------------------------
D-------------------13.---13/15-----------------------------------------
A-------11.---13/15-----------------------------------------------------
E-11/13-----------------------------------------------------------------


e-----------------------------------------------------------------------B---13---14.---16.---14p13------13--------------------------------------
G-15-------------------------15----13/15-13~----------------------------
D-----------------------------------------------------------------------
A-----------------------------------------------------------------------
E-----------------------------------------------------------------------


e--------------------------------13-------------------------------------

B-------------------------------------16(18)~~--------------------------
G-(16)(15)---13-15---13.---13~------------------------------------------
D-----------------------------------------------------------------------
A-----------------------------------------------------------------------
E-----------------------------------------------------------------------



e-13--------------------------------------------------------------------

B----16-13-------16-----------------------------------------------------
G----------16/17----17\15-13-15(16).--15.--15-13-15-13~-----------------
D-----------------------------------------------------------------------
A-----------------------------------------------------------------------
E-----------------------------------------------------------------------


e-----------------------------------------------------------------------B---------------------------------13--13--------------------------------
G------------------13--13-15-13-15--15----------------------------------
D---13--13-15-13-15--15-------------------------------------------------
A-15--15----------------------------------------------------------------
E-----------------------------------------------------------------------


e---------13--13-16-13-16-16(18).-16.-16-13.-13\------------------------B-16-13-16--16----------------------------------------------------------
G-----------------------------------------------------------------------
D-----------------------------------------------------------------------
A-----------------------------------------------------------------------
E-----------------------------------------------------------------------