20121029

ELVIS PRESLEY I NEED YOUR LOVE TONIGHT TAB (SOLO)

There is a cool guitar solo at 0:47 of Elvis Presley - I Need Your Love Tonight .
Try to pick down all these quick notes instead of the down-up-down-up picking, pick only the last note "up" and see the difference in the sound. TAB helps below.



ELVIS PRESLEY I NEED YOUR LOVE TONIGHT TAB


e-10-10-10-10-10-10-10---9-10-10-10---9-10-10-10---8--8-7--8\-----------
B-12-12-12-12-12-12-12--11-12-12-12--11-12-12-12--10-10-9-10\-----------
G-----------------------------------------------------------------------
D-----------------------------------------------------------------------
A-----------------------------------------------------------------------
E-----------------------------------------------------------------------


e--8--7--8--8--8--7--8--8--8---9-10--9-10\------------------------------
B-10--9-10-10-10--9-10-10-10--11-12-11-12\------------------------------
G-----------------------------------------------------------------------
D-----------------------------------------------------------------------
A-----------------------------------------------------------------------
E-----------------------------------------------------------------------



e-15--14-15-15-15--12-13-13-13--11-12-12-15\----------------------------
B-15--14-15-15-15--14-15-15-15--12-13-13-13\----------------------------
G-----------------------------------------------------------------------
D-----------------------------------------------------------------------
A-----------------------------------------------------------------------
E-----------------------------------------------------------------------

I Need Your LOve Tonight......

e-15-15-15-15-15-15-15--14-15-15-15--14-15-15-15--13-14-13-14\----------
B-15-15-15-15-15-15-15--14-15-15-15--14-15-15-15--12-13-12-13\----------
G-----------------------------------------------------------------------
D-----------------------------------------------------------------------
A-----------------------------------------------------------------------
E-----------------------------------------------------------------------


e-14--13-14-14-14--13-14-14-14--14-15-14-15\----------------------------
B-13--12-13-13-13--12-13-13-13--14-15-14-15\----------------------------
G-----------------------------------------------------------------------
D-----------------------------------------------------------------------
A-----------------------------------------------------------------------
E-----------------------------------------------------------------------


e-15--14-15-15-15--12-13-13-13--11-12-12-15\----------------------------
B-15--14-15-15-15--14-15-15-15--12-13-13-13\----------------------------
G-----------------------------------------------------------------------
D-----------------------------------------------------------------------
A-----------------------------------------------------------------------
E-----------------------------------------------------------------------