20121029

EROS RAMAZOTTI FUOCO NEL FOUCO TAB (SOLO)


There is a short lesson how to play the guitar solo of Eros Ramazotti - Fuoco Nel Fuoco.
The solo starts about 3:20 in the album version. 
TAB helps below.



EROS RAMAZOTTI FUOCO NEL FOUCO SOLO TAB


e-9-9-9---9---9---9h10---9----------------------------------------------
B----------------------------12--------12p10p9---10---12----------------
G----------------------------------------------------------9h11~~-------
D-----------------------------------------------------------------------
A-----------------------------------------------------------------------
E-----------------------------------------------------------------------


e---------------12~--10~--9~--------------------------------------------
B------9---10~----------------12~--10---12/14~--------------------------
G-11--------------------------------------------------------------------
D-----------------------------------------------------------------------
A-----------------------------------------------------------------------
E-----------------------------------------------------------------------


e-----------------------------------------------------------------------
B-10-10-10---12---12/14-12~-------12p10p9---10---12---------------------
G-----------------------------------------------------9h11~--9-9~~------
D-----------------------------------------------------------------------
A-----------------------------------------------------------------------
E-----------------------------------------------------------------------