20121024

JUANES A DIOS LE PIDO TAB (MAIN RIFF)


Juanes - A Dios Le Pido main riff played with a cool Road Worn Fender Stratocaster.
Use neck pick-up and clean sound.
TAB helps below.



JUANES A DIOS LE PIDO TAB 
 

e---5-------5-5-------8-8-8-------5-5-5-------5-5-----------------------
B-x-5---x---5-5---x---5-5-5---x---5-5-5---x---5-5-----------------------
G-x-5---x---5-5---x---5-5-5---x---5-5-5---x---5-5-----------------------
D-x-----x---------x-----------x-----------x-----------------------------
A-----------------------------------------------------------------------
E-----------------------------------------------------------------------


e-----------------------------------------------------------------------
B-----------------------------------------------------------------------
G-----4---7---7p4-----4---7---7p4-----4---7---7p4-----------------------
D-6---------------6---------------6---------------6---7.----------------
A-----------------------------------------------------------------------
E-----------------------------------------------------------------------


e---5-------5-5-------8-8-8-------5-5-5-------5-5-----------------------
B-x-5---x---5-5---x---5-5-5---x---5-5-5---x---5-5-----------------------
G-x-5---x---5-5---x---5-5-5---x---5-5-5---x---5-5-----------------------
D-x-----x---------x-----------x-----------x-----------------------------
A-----------------------------------------------------------------------
E-----------------------------------------------------------------------



e-----------------------------------------------------------------------
B-----------------------------------------------------------------------
G-----4---7---7p4-----4---7---7p4-----4---7---7p4-----------------------
D-6---------------6---------------6---------------6---7.----------------
A-----------------------------------------------------------------------
E-----------------------------------------------------------------------


e-----------------------------------------------------------------------
B-------5.----5.---------5.----5.---------------------------------------
G-----5-----5------5---5-----5------7.--4-------------------------------
D-7.-----------------7------------x-------6~----------------------------
A-----------------------------------------------------------------------
E-----------------------------------------------------------------------


e-----------------------------------------------------------------------
B-----------------------------------------------------------------------
G-----4---7---7p4-----4---7---7p4---------------------------------------
D-6---------------6---------------6---7.--------------------------------
A-----------------------------------------------------------------------
E-----------------------------------------------------------------------


e---------------5-------5.----5.---x-4-x-0------------------------------
B-------5-----5---5.--------5------x-5-x-5------------------------------
G-----5---5.----------5-------------------------------------------------
D-7.--------------------------------------------------------------------
A-----------------------------------------------------------------------
E-----------------------------------------------------------------------


e---4-7-10-8-7----8-7---------------------------------------------------
B-5------------10-----10-9-10~------------------------------------------
G-----------------------------------------------------------------------
D-----------------------------------------------------------------------
A-----------------------------------------------------------------------
E-----------------------------------------------------------------------