20121023

LA CAMISA NEGRA TAB (CHORDS)



Here you can learn how to play the guitar chords of Juanes - La Camisa Negra.
Do you want to learn the solo part? Then see LA CAMISA NEGRA SOLO >>



LA CAMISA NEGRA TAB


Intro

e-----2-------2-------2-------2-------2-------2-------2-------2---------
B-----2-------2-------2-------2-------2-------2-------2-------2---------
G-----2---x---2-------2-------2-------2---x---2-------2-------2---------
D-----4---x---4-------4-------4-------4---x---4-------4-------4---------
A-----4---x---4-------4---4---4-------4---x---4-------4---4---4---------
E-2---------------2---------------2---------------2---------------------


Verse/Chorus

e-----2-------2-------2-------2-------4-------4-------4-------4---------
B-----2-------2-------2-------2-------6-------6-------6-------6---------
G-----2---x---2---x---2---x---2-------4---x---4---x---4---x---4---------
D-----4---x---4---x---4---x---4-------6---x---6---x---6---x---6---------
A-----4---x---4---x---4---x---4---4-------x-------x-------x-------------
E-2---------------------------------------------------------------------


e-----2-------2-------2-------2-------2-------2-------4-------4---------
B-----2-------2-------2-------2-------4-------4-------6-------6---------
G-----2---x---2---x---2---x---2-------2---x---2-------4---x---4---------
D-----4---x---4---x---4---x---4-------4---x---4-------6---x---6---------
A-----4---x---4---x---4---x---4---2-------x-------4-------x-------------
E-2---------------------------------------------------------------------



Bridge (guitar 1)                                            3 times
                                                              
e-----2-------2-------4-------4-------6-------6-------7-------7---------
B-----2-------2-------4-------4-------6-------6-------7-------7---------
G-----3---x---3-------4---x---4-------6---x---6-------8---x---8---------
D-----4---x---4-------6---x---6-------8---x---8-------9---x---9---------
A-----4---x---4-------6---x---6-------8---x---8-------9---x---9---------
E-2---------------4---------------6---------------7---------------------


e-----2-------2-------4-------4-------6-------6---7---------------------
B-----2-------2-------4-------4-------6-------6---7---------------------
G-----3---x---3-------4---x---4-------6---x---6---8---------------------
D-----4---x---4-------6---x---6-------8---x---8---9---------------------
A-----4---x---4-------6---x---6-------8---x---8---9---------------------
E-2---------------4---------------6---------------7---------------------


Bridge (guitar 2)                                           3 times

e-2---------------4---------------6-----------------------7-------------
B-2-------2-------4-------4-------6-------6-----------7-------7.--------
G-3-----------3.--4-----------4.--6-----------6.--8---------------------
D-4---------------6---------------8---------------9---------------------
A-4---------------6---------------8---------------9---------------------
E-2---------------4---------------6---------------7---------------------


e-2---------------4---------------6---------------7---------------------
B-2-------2-------4-------4-------6-------6-------7---------------------
G-3-----------3.--4-----------4.--6-----------6.--8---------------------
D-4---------------6---------------8---------------9---------------------
A-4---------------6---------------8---------------9---------------------
E-2---------------4---------------6---------------7---------------------