20121009

LOOKING OUT MY BACK DOOR SOLO TAB


There is a cool solo in Looking Out My Back Door by Creedence Clearwater Revival.
This solo is from 1970 can you believe it? - and still sounds brilliant.
TAB helps below.



LOOKING OUT MY BACK DOOR SOLO TAB


e-----------------------------------------------------------------------
B------------------------------------------------------7----------------
G-------------------------------4---4---6---4---6/8--------8\6---4.-----
D-4---4-4---4-4h6---4-------4.------------------------------------------
A-----------------------6-----------------------------------------------
E-----------------------------------------------------------------------


e-----------------------------------2-----------------------------------
B-5--/---9------7---\---4-----------------2-----4-------2---------------
G-4--/---9------8---\---4-----------------------------------------------
D-6--/---9------9---\---4-----------------------------------------------
A-----------------------------------------------------------------------
E-------------------------------2-------2-----2-----2-------------------


e-----------------------------------------------------------------------B------------------------------------------------------7----------------
G-------------------------------4---4---6---4---6/8--------8\6---4.-----
D-4---4-4---4-4h6---4-------4.------------------------------------------
A-----------------------6-----------------------------------------------
E-----------------------------------------------------------------------


e-----------------------------------2-----------------------------------

B-5--/---9------7---\---4-----------------2-----------------------------
G-4--/---9------8---\---4-----------------------4-----------------------
D-6--/---9------9---\---4-----------------------------------------------
A-----------------------------------------------------------------------
E-------------------------------2-------2-------------------------------