20121016

MANU CHAO CLANDESTINO CHORDS TAB



There is a short guitar lesson how to play Manu Chao - Clandestino on guitar.




MANU CHAO CLANDESTINO TAB


Verse

   F# minor               B minor          C# 7         F# minor

e--2----------------------2----------------x------------2---------------
B--2----------------------3----------------2------------2---------------
G--2------- 6x -----------4----- 4x -------4---- 4x ----2---- 2x -------
D--4----------------------4----------------3------------4---------------
A--4----------------------2----------------4------------4---------------
E--2---------------------------------------x------------2---------------


Chorus

   C# 7     F#minor  C# 7    F#minor C# 7   F#minor C# 7     F#minor

e--x--------2--------x-------2-------x------2-------x--------2----------
B--2--------2--------2-------2-------2------2-------2--------2----------
G--4--------2--------4-------2-------4------2-------4--------2----------
D--3-- 2x --4-- 2x --3-- 2x -4-- 2x -3- 2x -4-- 2x -3-- 2x --4----------
A--4--------4--------4-------4-------4------4-------4--------4----------
E--x--------2--------x-------2-------x------2-------x--------2----------
 

Strumming pattern: down(mute)   down up   down(mute) up(mute)  down  up(mute)