20121029

REAMONN TONIGHT TAB (SOLO LIVE)


This is the official live version of Reamonn - Tonight. There is a wondeful intro solo. Look how the guitarist changes the classical guitar to an awesome jazz guitar after he finished with the intro. See the TAB of the chords and the intro solo below.


REAMONN TONIGHT TAB


Intro solo live

e-7---7-7-7h8---7------------------------------8------------------------
B-----------------10---8-8h10------10-10-10-10-----10-8---7-7h8---------
G-----------------------------------------------------------------------
D-----------------------------------------------------------------------
A-----------------------------------------------------------------------
E-----------------------------------------------------------------------


e-----------------------------------------------------------------------
B-8-8-8-8h10p8-7--------------------------------------------------------
G------------------9-11------11-9-8------8-9---11-----------------------
D-----------------------------------------------------------------------
A-----------------------------------------------------------------------
E-----------------------------------------------------------------------


e-7-----7-7-7h8p7--------7-----------8---10---8-7---8---7---------------
B-----------------10---8-----10-----------------------------------------
G-----------------------------------------------------------------------
D-----------------------------------------------------------------------
A-----------------------------------------------------------------------
E-----------------------------------------------------------------------



e-7-7-7-7h8---7---------------------------------------------------------
B---------------10---8-8h10----------7----------------7-\---------------
G--------------------------------------9-8------8-9---------------------
D-----------------------------------------------------------------------
A-----------------------------------------------------------------------
E-----------------------------------------------------------------------


e-2h3---2------------2-3-3/5---3---2--------0-2-2h3---2-----------------
B-----------0------0----------------------0---------------0-------------
G-----------------------------------------------------------------------
D-----------------------------------------------------------------------
A-----------------------------------------------------------------------
E-----------------------------------------------------------------------


e-5h7---5---2------2h3---2---0------------------------------------------
B-----------------------------------------------------------------------
G-----------------------------------------------------------------------
D-----------------------------------------------------------------------
A-----------------------------------------------------------------------
E-----------------------------------------------------------------------

Chords

  Em     Am     D      Bm     C      Am     D      B

e-0------0------2------2------0------0------2------x--------------------
B-0------1------3------3------1------1------3------4--------------------
G-0------2------2------4------0------2------2------4--------------------
D-2------2------0------4------2------2------0------4--------------------
A-2------0------0------2------3------0------0------x--------------------
E-0------------------------------------------------x--------------------

Intro solo of the album version

e-14(15)(14)----------15(17)(15)-14------14(15)(14)---------------------
B-------------12-------------------------------------12-----------------
G-----------------------------------------------------------------------
D-----------------------------------------------------------------------
A-----------------------------------------------------------------------
E-----------------------------------------------------------------------


e-19---17---14------14(15)(14)-12~--------------------------------------
B-----------------------------------------------------------------------
G-----------------------------------------------------------------------
D-----------------------------------------------------------------------
A-----------------------------------------------------------------------
E-----------------------------------------------------------------------



Strumming pattern for each chord:            down    down up     up down up