20121008

SUMMERCAT CHORDS, SOLO AND BASS TAB


How to play Summercat by Billie The Vision & the Dancers with an acoustic guitar.
Capo on the 4th fret.
See the TAB below.



SUMMERCAT TAB

Chords (with capo on the 4th fret) 

  E           H           C#m         A 

e-0---(4)-----3---(7)-----0---(4)-----1---(5)---------------------------

B-1---(5)-----0---(4)-----1---(5)-----1---(5)---------------------------
G-0---(4)-----0---(4)-----2---(6)-----2---(6)---------------------------
D-2---(6)-----0---(4)-----2---(6)-----3---(7)---------------------------
A-3---(7)-----2---(6)-----0---(4)-----3---(7)---------------------------
E-------------3---(7)-----------------1---(5)---------------------------
 
 
Solo part

e-0.------------0-------------------------------------------------------

B-----3.--1p0.-----3.--1p0.---0---0-0-------1---0-0---------------------
G-------------------------------------2p0.----------2p0.----------------
D-----------------------------------------------------------------------
A-----------------------------------------------------------------------
E-----------------------------------------------------------------------



e-----------------------------------------------------------------------B-----------------------------------------------------------------------
G-2--p0----------2--p0--------------------------------------------------
D------2p0-2p0.-------2p0-2p0-2-0---------0-2-3---3---3-2-0.------------
A-----------------------------------3---3-------------------------------
E-----------------------------------------------------------------------



Bass part (with capo)

e-----------------------------------------------------------------------B-----------------------------------------------------------------------
G-----------------------------------------------------------------------
D------2----5.-------2----5.--------------------------------------------
A-3-------------3------------------2----5.-------2----5.----------------
E-----------------------------3-------------3---------------------------


e-----------------------------------------------------------------------B-----------------------------------------------------------------------
G-----------------------------------------------------------------------
D-----------2.-------3----2.--------------------------------------------
A-0----3--------0------------------0----3.-------2----5.----------------
E-----------------------------1-------------3---------------------------



Strumming pattern:

down    down(x)-up   up-down(x)-up
down    down(x)-up   up-down(x)-up