20121025

TEENCATS ROCK AND ROLL IS KING TAB (SOLO)

"Rock'N'Roll Is King!!!"
This cool song was written originally by ELO (Electric Light Orchestra) in 1983.
Later Teencats covered it and they wrote a cool guitar solo, that's actually better than the original one. This video will help you to learn the Teencats solo.
TAB below.


TEEN CATS ROCK AND ROLL IS KING SOLO TAB


e-5-5-5-----5-----5-----5-----5-----5-----5------5-5--------------------
B-5-5-5-----5-----5-----5-----5-----5-----5------5-5--------------------
G-------7'----7'----7'----7'----7'----7'----7'-------7.--(9)(7)-5-------
D-----------------------------------------------------------------7.----
A-----------------------------------------------------------------------
E-----------------------------------------------------------------------


e--------------------------------------------8-10-10(12)---10(12)-------
B-----8--------10------8------10----10----10----------------------------
G-7/9---9-9/11----11\9---9/11----11-------------------------------------
D-----------------------------------------------------------------------
A-----------------------------------------------------------------------
E-----------------------------------------------------------------------


e-8-----8'------8'---5-------------8'---5-------------------------------
B--10-----------7'---5-7(8)(7)-----7'---5-7(8)(7)-----------------------
G----------------------7(8)(7)-5----------7(8)(7)-5---------------------
D--------------------------------7------------------7-------------------
A-----------------------------------------------------------------------
E-----------------------------------------------------------------------



e-----------------------5-----5-----5---5-8'--5---------------5----5----
B-5-----7-5-------------5-----5-----5-8---7'--5-7-------------5----5----
G-5h6---7-5h6---5-7-7'----7'----7'--------------7-5---5-7-7'----7'------
D-----7-------7-------------------------------------7-------------------
A-----------------------------------------------------------------------
E-----------------------------------------------------------------------


e-----------------------------------------------------------------------
B-5-------------------5---7--5-----5\-----------------------------------
G-7(8)(7)-5-----------5h6-7--5h6---6\-----------------------------------
D-----------7--------------------7--------------------------------------
A-----------------------------------------------------------------------
E-----------------------------------------------------------------------