20121015

THE BEATLES LET IT BE SOLO TAB


Short lesson how to play the guitar solo of The Beatles - Let it be.
The solo starts about 2:02 in the original version.
TAB helps below.



THE BEATLES LET IT BE SOLO TAB                                                     Download PDF


e-----------------------------------------------------------------------
H-----------------------------------------------------------------------
G-5-----5------------------------------5-7(9)---(9)(7)p5~---------------
D-5h7---5--------------5-5---5~----5h7----------------------------------
A---------7\5-3~---5/7-----7--------------------------------------------
E-----------------------------------------------------------------------


e-----8--------------5--------------------------------------------------
H-----------------------------------------------------------------------
G-7/9---9\7-5h7-7(9)---(9)(7)-5-----------------------------------------
D---------------------------------7p5-7p5-------------------------------
A-----------------------------------------7\5-3h5-3---------------------
E-----------------------------------------------------------------------


e-----------------------------------------------------------------------
H-------------------8------8------8---10~-------------------------------
G-----5-5-----5-7/9-----7h9----7h9--------------------------------------
D-5/7-------7-----------------------------------------------------------
A-----------------------------------------------------------------------
E-----------------------------------------------------------------------


e------8-10(12)------(12)(10)-8h10-8~-----------------------------------
H-8/10------------------------------------------------------------------
G-----------------------------------------------------------------------
D-----------------------------------------------------------------------
A-----------------------------------------------------------------------
E-----------------------------------------------------------------------


e-15(17)(15)------------------------------------------------------------
H------------------15(17)(15)p13-15.---(17)(15)p13h15-13~---------------
G-----------------------------------------------------------------------
D-----------------------------------------------------------------------
A-----------------------------------------------------------------------
E-----------------------------------------------------------------------