20121015

THE BEATLES LET IT BE SOLO TAB


Short lesson how to play the guitar solo of The Beatles - Let it be.
The solo starts about 2:02 in the original version.
TAB helps below.



THE BEATLES LET IT BE SOLO TAB                                                     Download PDF


e-----------------------------------------------------------------------
B-----------------------------------------------------------------------
G-5-----5------------------------------5-7(9)---(9)(7)p5~---------------
D-5h7---5--------------5-5---5~----5h7----------------------------------
A---------7\5-3~---5/7-----7--------------------------------------------
E-----------------------------------------------------------------------


e-----8--------------5--------------------------------------------------
B-----------------------------------------------------------------------
G-7/9---9\7-5h7-7(9)---(9)(7)-5-----------------------------------------
D---------------------------------7p5-7p5-------------------------------
A-----------------------------------------7\5-3h5-3---------------------
E-----------------------------------------------------------------------


e-----------------------------------------------------------------------B-------------------8------8------8---10~-------------------------------
G-----5-5-----5-7/9-----7h9----7h9--------------------------------------
D-5/7-------7-----------------------------------------------------------
A-----------------------------------------------------------------------
E-----------------------------------------------------------------------


e------8-10(12)------(12)(10)-8h10-8~-----------------------------------B-8/10------------------------------------------------------------------
G-----------------------------------------------------------------------
D-----------------------------------------------------------------------
A-----------------------------------------------------------------------
E-----------------------------------------------------------------------


e-15(17)(15)------------------------------------------------------------B------------------15(17)(15)p13-15.---(17)(15)p13h15-13~---------------
G-----------------------------------------------------------------------
D-----------------------------------------------------------------------
A-----------------------------------------------------------------------
E-----------------------------------------------------------------------




BUY THIS TAB IN GUITAR PRO HERE





  • click 'Buy Now' and send $6   (or 'Add to Cart' if you want to buy more tabs)
  • add your e-mail address
  • you will get a confirmation e-mail with your download link (in a few seconds)
  • download the Guitar Pro 6 tab + GP5 + PDF
  • and that's all 

IF YOU DIDN'T GET YOUR DOWNLOAD LINK, PLEASE CONTACT US HERE >>