20121013

THE KOOKS SHE MOVES IN HER OWN WAY TAB (SOLO)


Short lesson how to play the solo part of She Moves In Her Own Way by The Kooks.
This is a very nice song is and the solo sounds brilliant too.
TAB helps below.



THE KOOKS SHE MOVES IN HER OWN WAY TAB


e-------------------------------3-----5(6)\(5)p3-5----------------------
B-----------------3-------3--h5--------------------3--------------------
G-------0-----2/4-------4-----------------------------------------------
D-2p0-2-----------------------------------------------------------------
A-----------------------------------------------------------------------
E-----------------------------------------------------------------------


e-----------------------------------------------------------------------
B-12(13)-12-10---12-----------------------------------------------------
G-------------------12~-------------------------------------------------
D-----------------------------------------------------------------------
A-----------------------------------------------------------------------
E-----------------------------------------------------------------------


e--------------------------------15-17(18)\(17)p15-17.------------------
B-------------------------15~----15-------------------------------------
G----------12-----14/16---16~-------------------------------------------
D-14p12-14--------------------------------------------------------------
A-----------------------------------------------------------------------
E-----------------------------------------------------------------------


e-12.---10-\---8-.---7-\---5.---7---------------------7-----------------
B-13.---12-\---10.---8-\---7.---8---------------8-----------------------
G---------------------------------------------7-----7-------------------
D-----------------------------------------------------------------------
A-----------------------------------------------------------------------
E-----------------------------------------------------------------------