20121130

BOB MARLEY NO WOMAN NO CRY SOLO TAB


Short video how to play the legendary guitar solo of Bob Marley - No Woman No Cry.
This solo was originally played with a Cry Baby Wah-Wah Pedal.
The TAB helps under the video.



BOB MARLEY NO WOMAN NO CRY SOLO TAB


e---------------------------------------------------13-15-11/12---------
B---------------------------------13-15(17)~~-------------------13~~----
G---------------------------12-14---------------------------------------
D-----------10------12/14-----------------------------------------------
A-12---10.--------------------------------------------------------------
E-----------------------------------------------------------------------


e---------------------------8.-8----------------------------------------
B-----------------------8------8h10------8h10p8----8~~~-----------------
G-14.--12--------/7h8h9-------------------------10----------------------
D---------14\-----------------------------------------------------------
A-----------------------------------------------------------------------
E-----------------------------------------------------------------------


e-8----------------------------8----------------------------------------
B-8h10~-p8----10----11----10--------------------------------------------
G-----------------------------------8h9---------------------------------
D----------10----10----10---10---10-----10~---------------10.-10-12/14~-
A-----------------------------------------------10.-10h12---------------
E-----------------------------------------------------------------------



e----------------------------------------15-----------------------------
B----------13-15-13-13~--------13-15(17)----15(17)(15).-----------------
G-12-14-12---------------14-12------------------------------------------
D-----------------------------------------------------------------------
A-----------------------------------------------------------------------
E-----------------------------------------------------------------------


e-----------------------------------------------------------------------
B-13--------------------------------------------------------------------
G----12(14)(12).-----7(9)(7)-5---7(9)(7)(9)~~~-8(10)--7(9)(7)p5--5~-----
D------------------------------7-------------------------------7--------
A-----------------------------------------------------------------------
E-----------------------------------------------------------------------


e----------5------------------------5-----------------------------------
B--------5-----8p5-----5----------5-----8p5-----5-----------------------
G-7(9)-------------7-----5-7(9)-------------7-----5---------------------
D-------------------------------------------------5h7-------------------
A-----------------------------------------------------------------------
E-----------------------------------------------------------------------


e-----------------------------------------------------------------------
B---------------------------------5h6---5h6p5---5-----------------------
G------------------------5~-------5-----------7---5---------------------
D-5------------------5h7----------------------------5-5h7p5-------------
A---7\5-3-------3-/7----------------------------------------------------
E---------5-3-5---------------------------------------------------------


e-8---------------------------------------------------------------------
B-8---------------------------------------------------------------------
G---7(9)(7)~-----5---5-5~------5-------7~------------------9~-----------
D------------------7----------------------------------------------------
A--------------------------5/7-----7/8------------8.--8/10--------------
E-----------------------------------------------------------------------


e-8---------------------------------12----10---8.-----------------------B-8h10---p8----8-----------------------------------8h10p8~~-------------
G-----------10---8h9------------12-----10----9--------------------------
D--------------------10~------------------------------------------------
A-----------------------------------------------------------------------
E-----------------------------------------------------------------------