20121130

HOTEL CALIFORNIA SOLO TAB (THE EAGLES)


There is a great guitar lesson how to play the solo of Hotel California by The Eagles.
Thanks Carl Brown, you made a great job. TAB helps below.
Check out Carl Brown's website here: www.guitarlessons365.com



HOTEL CALIFORNIA SOLO TAB                                                      Printable tab here





e-----------------------------------------------------------------------
H---------10h12(15)~~----10h12-----------7------------------------------
G-/-/11-----------------------\9~~---7h9---7----------------------------
D--------------------------------------------8~---9---12p9-7(8)~~-------
A-----------------------------------------------------------------------
E-----------------------------------------------------------------------


e-----------------------------------------10----------------------------
H-----7---------------7-----------10(12)-----(12)(10)-7-10-8(9)~--------
G-7h9---7---------7h9---7-----------------------------------------------
D---------9p8-9~----------9p7-9p7---------------------------------------
A-----------------------------------------------------------------------
E-----------------------------------------------------------------------


e-7---10(12)------10.--(12)(10)-7--------10-----------------------------
H---7-----------------------------10(12)----(12)(10)-8----x--x----------
G---------------------------------------------------------x--x----------
D-----------------------------------------------------------------------
A-----------------------------------------------------------------------
E-----------------------------------------------------------------------



e-------10.-------------------------------------------------------------
H---------------------------------------7(8).--7(8)(7)------------------
G-9(11)------(11)(9)-7.--7\6/7~-----7h9----------------9p7-9------------
D-----------------------------------------------------------------------
A-----------------------------------------------------------------------
E-----------------------------------------------------------------------


e----------------------------------------------7------------------------
H-7(8).--7(8).--7(8)(7)-----------7-10-------7--------------------------
G-----------------------9p7-9(11)------9(11)-----9(11)(9)p7-9(11)~~-----
D-----------------------------------------------------------------------
A-----------------------------------------------------------------------
E-----------------------------------------------------------------------


e--------------------7-------7-7-------7-7------------------------------
H-------7-10-------7---------7-7-------7-7------------------------------
G-9(11)------9(11)-----9(11)-----9(11)-----9(11)(9)p7-9-7--9~~//--------
D-----------------------------------------------------------------------
A-----------------------------------------------------------------------
E-----------------------------------------------------------------------


e------------------------------7--------------10.-----------------------
H-----------------------10(12)-----10-7-10/12------12p11-10-9~----------
G-11(14)---9-11-7'------------------------------------------------------
D-------------------9-x-------------------------------------------------
A-----------------------------------------------------------------------
E-----------------------------------------------------------------------


e---------------------------------17------------------------------------
H----------12---15'--17p15-17(19)----(19)(17)p15-17p15------------------
G-14(16)----------------------------------------------------------------
D-----------------------------------------------------------------------
A-----------------------------------------------------------------------
E-----------------------------------------------------------------------


e--------15-16-17-17(19).----------------------------------17---17------
H-17(19).----------------(18)(17)-15~--17.--17p15-17(19)----------------
G-----------------------------------------------------------------------
D-----------------------------------------------------------------------
A-----------------------------------------------------------------------
E-----------------------------------------------------------------------


e----------------------------------------17---17------------------------
H-(19)(18)(19)----(19)(17)-15.--17(19)----------(19)(18)(19)~~~---------
G-----------------------------------------------------------------------
D-----------------------------------------------------------------------
A-----------------------------------------------------------------------
E-----------------------------------------------------------------------


e--------------17(19)~~----------10--------10---------------------------
H-(19)(17)-15.------------12(15)----12(15)------------------11~~~~------
G---------------------------------------------11p10p9p8-----------------
D-------------------------------------------------------8-7-------------
A-----------------------------------------------------------------------
E-----------------------------------------------------------------------


e-12(14)-------(14)-(14)-(14)-(14)-(14)-(13)-(13)-(13)-(13)-------------
H-----------------------------------------------------------------------
G-----------------------------------------------------------------------
D-----------------------------------------------------------------------
A-----------------------------------------------------------------------
E-----------------------------------------------------------------------


e-12p10------12---10'---------------------------------------------------
H-------12-------------12~------10-------------10~----------------------
G----------------------------------11\9-7-9/11--------------------------
D-----------------------------------------------------------------------
A-----------------------------------------------------------------------
E-----------------------------------------------------------------------


e------10----9---7---------------------------7---12p10------------------
H---------10---8---7-10---8--------------------7------------------------
G-9(11)-----------------7-----7-----------7~-----------12(14)(12)-11----
D---------------------------9---7-5\4-5/7-------------------------------
A-----------------------------------------------------------------------
E-----------------------------------------------------------------------


e------------------------------------------9---10---12------------------
H-------------------10---12--------11-----------------------------------
G-11---12------12-------------------------------------------------------
D-----------------------------------------------------------------------
A-----------------------------------------------------------------------
E-----------------------------------------------------------------------


e-14-10---14-10---14-10---14-10---14-10---12-9---12-9----12-9-12/18~----
H------12------12------12------12------12-----11-----11-----------------
G-----------------------------------------------------------------------
D-----------------------------------------------------------------------
A-----------------------------------------------------------------------
E-----------------------------------------------------------------------


e-12-9----12-9----12-9----12-9----12-9----10-7---10-7---10-7-10/16~-----
H------10------10------10------10------10------9------9-----------------
G-----------------------------------------------------------------------
D-----------------------------------------------------------------------
A-----------------------------------------------------------------------
E-----------------------------------------------------------------------


e-10-7---10-7---10-7---10-7---10-7---10-5---10-5---10-5-10/14~----------
H------8------8------8------8------8------7------7----------------------
G-----------------------------------------------------------------------
D-----------------------------------------------------------------------
A-----------------------------------------------------------------------
E-----------------------------------------------------------------------


e-7-----7-----7-----7-----7-----9-6---9-6---9-6-9/14~-------------------
H---8-----8-----8-----8-----8-------7-----7-----------------------------
G-----9-----9-----9-----9-----9-----------------------------------------
D-----------------------------------------------------------------------
A-----------------------------------------------------------------------
E-----------------------------------------------------------------------



Are you satisfied with this guitar tab? Send your idea which song or guitar riff should be the next for tabbing by making a TAB REQUEST HERE
    

SEE ALSO


  

MORE ON GUITAR TABS A-Z