20121130

THE EAGLES HOTEL CALIFORNIA SOLO TAB (COVER BY SEAN BOOTHE)

Hotel California guitar solo cover played by Sean Boothe. 2 lead guitar lines.
#1 a Gibson Les Paul and #2 a Fender Stratocaster.
Original song by The Eagles. Download the GP5, GP6 and PDF files below.



THE EAGLES HOTEL CALIFORNIA SOLO TAB

GP5 + GP6 + PDF >>

e-----------------------------------------------------------------------
B--------10h12(15)~~----10-12-------------7----------0-h3p0-------------
G--/11-----------------------11\9~~---7h9---7'-------------2(3)~~~------
D---------------------------------------------8~------------------------
A-----------------------------------------------------------------------
E-----------------------------------------------------------------------


e-------------------------------------------10--------------------------
B-------7---------------7-----------10(12)-----(12)(10)p7-10-8(9)~------
G---7-9---7'--------7-9---7---------------------------------------------
D-----------9p8-9~----------9p7-9p7-------------------------------------
A-----------------------------------------------------------------------
E-----------------------------------------------------------------------


e---7---10(12)------10.--(12)(10)-7--------10---------------------------
B-----7-----------------------------10(12)----(12)(10)-8~---------------
G-----------------------------------------------------------------------
D-----------------------------------------------------------------------
A-----------------------------------------------------------------------
E-----------------------------------------------------------------------



e---------10.-----------------------------------------------------------
B-----------------------------------------------------------------------
G---9(11)------9(11)-9p7.--7\6-7~---------------------------------------
D-----------------------------------------------------------------------
A-----------------------------------------------------------------------
E-----------------------------------------------------------------------


e-----------------------------------------------------------------------
B-------7(8).--7(8)(7)-------7(8).--7(8).--7(8)(7)----------------------
G---7h9----------------9p7-9-----------------------9p7------------------
D-----------------------------------------------------------------------
A-----------------------------------------------------------------------
E-----------------------------------------------------------------------


e----------------------7------------------------------------------------
B---------7-10-------7--------------------------------------------------
G---9(11)------9(11)-----9(11)(9)p7-9(11)~~~----------------------------
D-----------------------------------------------------------------------
A-----------------------------------------------------------------------
E-----------------------------------------------------------------------




DOWNLOAD THE COMPLETE TAB HERE



  • click 'Free Download'
  • add your e-mail address
  • you will get an e-mail with your download links (in a few seconds)
  • download the Guitar Pro 6 tab + GP5 + PDF for free
  • and that's all ...


Guitar Pro: a complete workshop for guitarists at an affordable price