20121127

LAURA COX COUNTRY JAM TAB (GUITAR PRO)


Laura Cox plays a cool Country Jam with a Fender Telecaster.
The original video title says: 'Country Jam with some friends' 
She is using Dropped D tuning.
Download the Guitar Pro Tab of the first solo below.



LAURA COX COUNTRY JAM TAB


e-----------------------------------------------------------------------
B-----------------------2/3.--2/3~~-------------------------------------
G-------------------0---1/2.--1/2~~-------------------------------------
D-------------0-h3----x-------------------------------------------------
A---3p2p0--3------------------------------------------------------------
D-----------------------------------------------------------------------


e-----------------------------------------------------------------------
B---3-------------------------------------------------------------------
G---2-p0----------------------------------------------------------------
D---------0-----0-----0-------------------------------------------------
A------------3-----3----------------------------------------------------
D------------------------3(4)(3)-0--------------------------------------


e-----------------------------------------------------------------------
B-------------------------------2/3.--2/3~~-----------------------------
G---------------------------0---1/2.--1/2~~-----------------------------
D-------0-------------0-h3----x-----------------------------------------
A---0h3-----3p2p0--3----------------------------------------------------
D-----------------------------------------------------------------------



e-----------------------------------------------0-----------------------
B---3-------------------------------------------------------------------
G---2-p0-------------------------------0-----2-----4--(6).--------------
D---------3p0-----------------------2-----4-----------------------------
A--------------0--2(3)(2)-0---3-h4--------------------------------------
D-----------------------------------------------------------------------


e-----------------------------------------------------------------------
B---6'------------------------------------------------------------------
G-------7-5-------------------------------------------------------------
D-----------7-6-5---3h4-------------------------------------3~--0-------
A-----------------x-----5-3---2/3---2/3---2/3---2/3---3h5-x-------0h3-5-
D---------------------------x-----x-----x-----x-----x-------------------


e-----------------------------------------------------------------------
B-----------------------------------------------------------------------
G-----------------------------------------------------------------------
D-----5(6)(5)---3-3~----------------------0------5'-3-------------------
A---x---------x-------x-5-5~----3---2p0-------------------5-5~~---------
D-----------------------------x---x-----x------x--------x---------------
 

e-----------------------------------------------------------------------
B-----------------------------------------------------------------------
G-----------------------------------------------------------------------
D-----------------------------------------------------------------------
A-----3---2p0-----------------------------------------------------------
D---x---x-----3'-0------------------------------------------------------




DOWNLOAD THIS SOLO TAB IN GUITAR PRO


  • click 'Free Download'
  • add your e-mail address
  • you will get an e-mail with your download links (in a few seconds)
  • download the Guitar Pro 6 tab + GP5 + PDF for free
  • and that's all ...


Guitar Pro: a complete workshop for guitarists at an affordable price