20121127

LAURA COX COUNTRY JAM TAB

Laura Cox, the best female guitarist ever, plays a cool country jam with her friends.
She is playing a cool Fender Telecaster in dropped D tuning.
(that means that the low E string is tuned down to D)
See the TAB of the first solo below.



LAURA COX COUNTRY JAM TAB                                                           Download PDF


e-----------------------------------------------------------------------
H--------------------2/3.--2/3~~-------3--------------------------------
G----------------0.--1/2.--1/2~~-------2p0------------------------------
D-----------0-h3---------------------------0----0----0------------------
A-3p2p0--3-----------------------------------3----3---------------------
D------------------------------------------------------3(4)(3)-0--------


e-----------------------------------------------------------------------
H-----------------------------2/3.--2/3~~-------------------------------
G-------------------------0.--1/2.--1/2~~-------------------------------
D-----0--------------0-h3-----------------------------------------------
A-0-3------3p2p0--3-----------------------------------------------------
D-----------------------------------------------------------------------


e------------------------------------0----------------------------------
H-3---------------------------------------------------------------------
G-2p0--------------------------0---2---4''------------------------------
D-----3p0--------------------2---4--------------------------------------
A---------0-2(3)(2)-0----3h4--------------------------------------------
D-----------------------------------------------------------------------



e-----------------------------------------------------------------------
H-6'--------------------------------------------------------------------
G----7-5----------------------------------------------------------------
D--------7-6-5.---3h4----------------------------------3~~--0-----------
A---------------------5-3.--2/3.-2/3.-2/3.-2/3.-3h5.-x--------0-3-5.----
D-----------------------------------------------------------------------


e-----------------------------------------------------------------------
H-----------------------------------------------------------------------
G-----------------------------------------------------------------------
D-5(6)(5)---3-3~----------------------0------5'-3-----------------------
A---------0-------0-5-5~----3---2p0-------------------5-5~~-------------
D-------------------------0---0-----0------0--------0-------------------
          x       x       x   x     x      x        x

e-----------------------------------------------------------------------
H-----------------------------------------------------------------------
G-----------------------------------------------------------------------
D-----------------------------------------------------------------------
A---3---2p0-------------------------------------------------------------
D-0---0-----3-0---------------------------------------------------------
  x   x