20121124

RICHARD SANDERSON REALITY TAB (SOLO)

There is a cool guitar solo in Richard Sanderson - Reality played with a Stratocaster.
It is the main song of the movie " La Boom" from the '80s.
You will see how to play the solo with normal speed then slower.
TAB helps below.



RICHARD SANDERSON REALITY  SOLO TAB


e-----------------------------------------------------------------------
B-/12~------------15.---------------------------------------------------
G----------14(16)-------(16)(14)-12---14/16~----------------------------
D-----------------------------------------------------------------------
A-----------------------------------------------------------------------
E-----------------------------------------------------------------------


e-----------------------------------------------------------------------
B-(17)(15)--------------------------------------------------------------
G---------14(16)(14)-----14---14/16~------------------------------------
D-------------------13--------------------------------------------------
A-----------------------------------------------------------------------
E-----------------------------------------------------------------------


e-12--------------------------------------------------------------------
B----15-12--------------------------------------------------------------
G----------15-14p12-14p12-14(16)-14(16)-12'-----------------------------
D--------------------------------------------14\------------------------
A-----------------------------------------------------------------------
E-----------------------------------------------------------------------



e-----------------------------------------------------------------------
B-----------------------------------------------------------------------
G-----12----14(16)(14)-12-12---12--/--14~-------------------------------
D-/14----14-------------------------------------------------------------
A-----------------------------------------------------------------------
E-----------------------------------------------------------------------


e------------------------------17(19)---(19)(17)-15---17(19)------------
B-----15----15-17(18)(17)-15-----------------------15--------17.--17----
G-/16----16-------------------------------------------------------------
D-----------------------------------------------------------------------
A-----------------------------------------------------------------------
E-----------------------------------------------------------------------


e----12-----------------------------------------------------------------
B-15----15-12-----------------------------------------------------------
G-------------15-14-12-14-14(16).--14(16)(14)-12-12~--------------------
D-----------------------------------------------------------------------
A-----------------------------------------------------------------------
E-----------------------------------------------------------------------