20121105

SANTANA CORAZON ESPINADO TAB (SOLOS)


Short lesson how to play the solo parts of Corazon Espinado by Santana. (feat. Mana)
See the TAB under the video.



CARLOS SANTANA CORAZON ESPINADO TAB


Intro solo

e--------------------------------7--------------------------------------
B----------------------------7-------11-----7---------------------------
G-------7----------------7--------------------9---7-9(11)-9(11)---------
D---7-9---9-7-9~--------------------------------------------------------
A-9---------------------------------------------------------------------
E-----------------------------------------------------------------------


e-----------------------------------------------------------------------
B-----------------------------------------------------------------------
G-(11)(9).---6.---7---9.------------------------------------------------
D-----------------------------------------------------------------------
A-----------------------------------------------------------------------
E-----------------------------------------------------------------------


e------7h10p7----7~--------------14---18(19)(18)'---14------------------
B-7h10--------10------------15-------------------------17---15----------
G-----------------------------------------------------------------------
D-----------------------------------------------------------------------
A-----------------------------------------------------------------------
E-----------------------------------------------------------------------



e--------14---------------14-14--------14-14-14-14----------------------
B-17(19)-----------17(19)-------17(19)----------------------------------
G-----------------------------------------------------------------------
D-----------------------------------------------------------------------
A-----------------------------------------------------------------------
E-----------------------------------------------------------------------


e-----------------------------------------------------------------------
B-17---14-15-17---15-14-14----------------------------------------------
G----------------------------16-16~-------------------------------------
D-----------------------------------------------------------------------
A-----------------------------------------------------------------------
E-----------------------------------------------------------------------


Main solo

e--------------------7--------------------------------------------------
B-10---(12)~------------10--7-------------------------------------------
G------------------------------9(11)---(11)~~~--------------------------
D-----------------------------------------------------------------------
A-----------------------------------------------------------------------
E-----------------------------------------------------------------------


e-9(10)---(9)---7----------7-7-7-7-7-7-7--------------------------------
B-----------------10(12)-------------------10p7-------------------------
G-----------------------------------------------9(11)---9~---7h9~-------
D-----------------------------------------------------------------------
A-----------------------------------------------------------------------
E-----------------------------------------------------------------------


e-7-10-10p7-10-10-7-10-7-10-10p7-10-10-7-10-9-12-12p9-12-12-9-12--------
B-----------------------------------------------------------------------
G-----------------------------------------------------------------------
D-----------------------------------------------------------------------
A-----------------------------------------------------------------------
E-----------------------------------------------------------------------


e-9-12-12-12-9-9-14-14-14-14-15p14-15p14-15p14-15p14---15---14---15-----
B-----------------------------------------------------------------------
G-----------------------------------------------------------------------
D-----------------------------------------------------------------------
A-----------------------------------------------------------------------
E-----------------------------------------------------------------------


e-14---15---14---15---15(17)---(15)---14---17(19)---17(19)~~~~~~--------
B-----------------------------------------------------------------------
G-----------------------------------------------------------------------
D-----------------------------------------------------------------------
A-----------------------------------------------------------------------
E-----------------------------------------------------------------------


e-(19)---(17)---14------------------------------------------------------
B------------------17(19)---(19)~~~-------------------------------------
G-----------------------------------------------------------------------
D-----------------------------------------------------------------------
A-----------------------------------------------------------------------
E-----------------------------------------------------------------------


e-17(19)--17(19)---17(19)---(17)-14----14----------------------14-------
B-----------------------------------17----17(19)---17-15-17-17----15-17~
G-----------------------------------------------------------------------
D-----------------------------------------------------------------------
A-----------------------------------------------------------------------
E-----------------------------------------------------------------------


e--------------------7-7.---7-10p9p7-10p9p7-10p9p7-10p9p7-10p9p7-10p9p7-
B----15-14-----------7-7.-----------------------------------------------
G----------16~---\------------------------------------------------------
D-----------------------------------------------------------------------
A-----------------------------------------------------------------------
E-----------------------------------------------------------------------


e-10p9p7------12p10p9-12p10p9-12p10p9-12p10p9-12p10p9-12p10p9-----------
B-----------------------------------------------------------------------
G-----------------------------------------------------------------------
D-----------------------------------------------------------------------
A-----------------------------------------------------------------------
E-----------------------------------------------------------------------


e-x/x/x/x/x/x/x/x/x/x/x/x/x/x/x/x/x/x/x/x/x/x/x/x/x/x/x/x/x/x/x/x-------
B-x/x/x/x/x/x/x/x/x/x/x/x/x/x/x/x/x/x/x/x/x/x/x/x/x/x/x/x/x/x/x/x-------
G-x/x/x/x/x/x/x/x/x/x/x/x/x/x/x/x/x/x/x/x/x/x/x/x/x/x/x/x/x/x/x/x-------
D-----C-H-A-K-A---C-H-A-K-A---S-L-I-D-E---UP-----:D---------------------
A-x/x/x/x/x/x/x/x/x/x/x/x/x/x/x/x/x/x/x/x/x/x/x/x/x/x/x/x/x/x/x/x-------
E-x/x/x/x/x/x/x/x/x/x/x/x/x/x/x/x/x/x/x/x/x/x/x/x/x/x/x/x/x/x/x/x-------