20121108

SPIN DOCTORS TWO PRINCES TAB (SOLO)


Short guitar lesson how to play the guitar solo of Spin Doctors - Two Princes.
This video follows the album version.
See the TAB under the video.



SPIN DOCTORS TWO PRINCES SOLO TAB


e-----------------------------------------------------------------------
B-----------------------------------------------------------------------
G-----------------------------------------------------------------------
D----0-0.--0-0.--3'-0.--0.--0---0-0-0.--0-0.--3'------------------------
A-/5-------------------------/5-----------------------------------------
E-----------------------------------------------------------------------


e-----------------------------------------------------------------------
B-----------------------------------------------------------------------
G------------------------------------------5---5-5.--7\-----------------
D-------0-0-0---0-0.--3'-0.---5.--x-7--------7-----x--------------------
A-3/5-------------------------------------------------------------------
E-----------------------------------------------------------------------


e---------------10.-------------------10.-------------------------------
B--------10(12)----------12-12.--12.-------13'--10~---------------------
G-/7-9-7----------------------------------------------------------------
D-----------------------------------------------------------------------
A-----------------------------------------------------------------------
E-----------------------------------------------------------------------



e-----------------------------------------------------------------------
B-10-10-13(15)-13-12.--10.----------------------------------------------
G--------------------------10'------------------------------------------
D------------------------------12~--12-12-9-9-9-9.--12.--10.-10'--------
A----------------------------------------------------------------12~----
E-----------------------------------------------------------------------


e-----------------------------------------------------------------------
B----------------------------------15-------------15--------------------
G---------------------12----14(16)----12~--14(16)---(16)(14)-12---12----
D------------12-14-12----12-------------------------------------14------
A-10.--12/14------------------------------------------------------------
E-----------------------------------------------------------------------


e-----------------------------------------------------------------------
B-----------------------------------------------------------------------
G-14(16)---14-13-12-10'-------------------------------------------------
D------------------------12-10------------------------------------------
A------------------------------12-11-10---------------------------------
E---------------------------------------13-10\--------------------------


e-----------------------------------------------------------------------
B-----------------------------------------15----------------------------
G-----------------12----12-14p12-14(16)------12~------------------------
D--------12-14-12----12-------------------------------------------------
A-/14-------------------------------------------------------------------
E-----------------------------------------------------------------------


e----------------------------------------15-----------------------------
B--------17-----------------------17(19)----(19)(17)---15---------------
G-16(18)----(18)(16)-14----14-14~---------------------------------------
D-----------------------16----------------------------------------------
A-----------------------------------------------------------------------
E-----------------------------------------------------------------------


e-----------------------------------------------------------------------
B--------15-----------------17(19)~--(18)-(19)-(18)-17(19)~--17---------
G-16(18)----(18)(16)---14-----------------------------------------------
D-----------------------------------------------------------------------
A-----------------------------------------------------------------------
E-----------------------------------------------------------------------


e-----------------------------------------------------------------------
B-15h17-15~-------------------------------------------------------------
G-----------------------------------------------------------------------
D-----------------------------------------------------------------------
A-----------------------------------------------------------------------
E-----------------------------------------------------------------------