20121124

TRACY CHAPMAN FAST CAR TAB


Put your CAPO on the 2nd fret and you can start playing Fast Car by Tracy Chapman. You'll only need an acoustic guitar and a good singer ...
See the TAB under the lesson.



TRACY CHAPMAN FAST CAR TAB



Intro                     Capo on the 2nd

e-----------------------------------------------------------------------
B-0h1---0---3-------3----------8-------8---7-------7--------------------
G-0---------0---0-------0------0---0-------0---0-------0----------------
D-----------------------------------------------------------------------
A-3----------------------------7-----------5----------------------------
E-----------3-----------------------------------------------------------


e-----------------------------------------------------------------------
B-0h1---0---3-------3----------8-------8---7-------7--------------------
G-0---------0---0-------0------0---0-------0---0-------0----------------
D-----------------------------------------------------------------------
A-3----------------------------7-----------5----------------------------
E-----------3-----------------------------------------------------------


e-----------------------------------5-----------------------------------
B-0h1---0---3-------3----------8--------8---7---8---7-------------------
G-0---------0---0-------0------0----------------------------------------
D-----------------------------------------------------------------------
A-3----------------------------7------------5---------------------------
E-----------3-----------------------------------------------------------




e-----------------------------------------------------------------------
B-0h1---0---3-------3----------8-------8---7-------7--------------------
G-0---------0---0-------0------0---0-------0---0-------0----------------
D-----------------------------------------------------------------------
A-3----------------------------7-----------5----------------------------
E-----------3-----------------------------------------------------------


Verse

e-----------------------------------------------------------------------
B-0h1---0---3-------3----------8-------8---7-------7--------------------
G-0---------0---0-------0------0---0-------0---0-------0----------------
D------------------------------------------------------------  4x  -----
A-3----------------------------7-----------5----------------------------
E-----------3-----------------------------------------------------------


Chorus


   C       G       C   Em  D       C   Em  D       C   Em  D

e--0-------3-------0---0---2-------0---0---2-------0---0---2------------
B--1-------0-------1---0---3-------1---0---3-------1---0---3------------
G--0-------0-------0---0---2-------0---0---2-------0---0---2------------
D--2-------0-------2---2---0-------2---2---0-------2---2---0------------
A--3-------2-------3---2---0-------3---2---0-------3---2---0------------
E--3-------3-------3---0-----------3---0-----------3---0----------------


   C   D

e--0---2----------------------------------------------------------------
B--1---3----------------------------------------------------------------
G--0---2----------------------------------------------------------------
D--2---0----------------------------------------------------------------
A--3---0----------------------------------------------------------------
E--3--------------------------------------------------------------------