20121223

BILLY IDOL JINGLE BELL ROCK TAB

A cool version of Jingle Bell Rock by BILLY IDOL

HAPPY X'MAS EVERYONE!!!
 


SOLO PART ON GUITAR


BILLY IDOL JINGLE BELL ROCK TAB

PDF >>

Intro

e------8.--8-8---7.--7-7---12--15-8--10--10(11)--10--8------8-----------
B------8.--8-8---8.--8-8---13-----8--10--10(11)--10--8--10--8-----------
G-/9---9.--9-9---9.--9-9--------------------------------10--8h9---------
D-----------------------------------------------------------------------
A-----------------------------------------------------------------------
E-----------------------------------------------------------------------


Verse chords

  C                       Dm          G7  Dm  G7  Dm      G5#

e-------------------------------------3-------3-----------3-3---3-3-----
B-5---5---5---5---5---5---6---6---6---6---6---6---6---6---4-4---4-4-----
G-5---5---5---5---5---5---7---7---7---4---7---4---7---7---4-4---4-4-----
D-5---5---5---5---5---5---7---7---7---5---7---5---7---7---5-5---5-5-----
A-3---3---3---3---3---3---5---5---5-------5-------5---5-----------------
E-----------------------------------------------------------------------

  C                       Dm          G7  Dm  G7  D   G7  C

e-------------------------------------3-------3-------3-----------------
B-5---5---5---5---5---5---6---6---6---6---6---6---7---6---5---5---------
G-5---5---5---5---5---5---7---7---7---4---7---4---7---4---5---5---------
D-5---5---5---5---5---5---7---7---7---5---7---5---7---5---5---5---------
A-3---3---3---3---3---3---5---5---5-------5-------5-------3---3---------
E-----------------------------------------------------------------------




Bridge

  F       Fm      C               D               G

e-------------------------------------------------3---------------------
B-10--10--9---9---5---5---5---5---7---7---7---7---3---------------------
G-10--10--10--10--5---5---5---5---7---7---7---7---4---------------------
D-10--10--10--10--5---5---5---5---7---7---7---7---5---------------------
A-8---8---8---8---3---3---3---3---5---5---5---5---5---------------------
E-------------------------------------------------3---------------------

  C                       A       Dm      Fm      D   G7  C

e-----------------------------------------------------3-----------------
B-5---5---5---5---5---5-----------6---6---9---9---7---6---5---5---------
G-5---5---5---5---5---5---6---6---7---7---10--10--7---4---5---5---------
D-5---5---5---5---5---5---7---7---7---7---10--10--7---5---5---5---------
A-3---3---3---3---3---3---7---7---5---5---8---8---5-------3---3---------
E-------------------------5---5-----------------------------------------


Solo

e-----------------------------------------------------------------------
B-13.--13-13---12.--12-12---10.--(12)(10)-------------------------------
G-----------------------------------------9-----------------------------
D-----------------------------------------------------------------------
A-----------------------------------------------------------------------
E-----------------------------------------------------------------------


e-----------------------------------------------------------------------
B-10.--(12)(10)-----8---10.--(12)(10)-----------------------------------
G---------------9---------------------10--------------------------------
D-----------------------------------------------------------------------
A-----------------------------------------------------------------------
E-----------------------------------------------------------------------


e-----------------------------------------------------------------------
B------------------10---------------------------------------------------
G------9-10.--12------12.-----------9-10.--12---------------------------
D-12---------------------------12---------------------------------------
A-----------------------------------------------------------------------
E-----------------------------------------------------------------------


e---------------10------------------------------------------------------
B-10---8-10(12)----(12)(10)-8-10---8-----8---\--------------------------
G------------------------------------8.--8---\--------------------------
D-----------------------------------------------------------------------
A-----------------------------------------------------------------------
E-----------------------------------------------------------------------


e-----------------------------------------------------------------------
B-12(13)---(13)-(13)---12.--12-12---10.--(12)(10)-----------------------
G-------------------------------------------------9---------------------
D-----------------------------------------------------------------------
A-----------------------------------------------------------------------
E-----------------------------------------------------------------------


e-----------------------------------------------------------------------
B--8-10.--(12)(10)-----8-(12)(10)---------------------------------------
G-9----------------9--------------10------------------------------------
D-----------------------------------------------------------------------
A-----------------------------------------------------------------------
E-----------------------------------------------------------------------


e-----------------------------------------------------------------------
B--------------10-------------------10-12-13-12-------------------------
G------9-10-12--------------9-10-12-------------------------------------
D-12---------------------12---------------------------------------------
A-----------------------------------------------------------------------
E-----------------------------------------------------------------------


e-----------------------------------------------------------------------
B-----------(15)(13)---13-----------------------------------------------
G-14.--12.--------------------------------------------------------------
D-----------------------------------------------------------------------
A-----------------------------------------------------------------------
E-----------------------------------------------------------------------


Lick by 1:30

e-----------------------------------------------------------------------
B-----------------------------------------------------------------------
G-12---10--9--------10--9---7-------------------------------------------
D-----------------------------------------------------------------------
A-10---8---7--------8---7---5-------------------------------------------
E-----------------------------------------------------------------------


The End

e------8---8-8---7---7-7---12--15-8--10--10(11)--10--8------8-----------
B------8---8-8---8---8-8---13-----8--10--10(11)--10--8--10--8-----------
G------9---9-9---9---9-9--------------------------------10--8h9---------
D-----------------------------------------------------------------------
A-----------------------------------------------------------------------
E-----------------------------------------------------------------------


e---------------------------------------------8h10p8----8---------------
B------------------------------------8h10p8----------10---10p8---8------
G-12-10.-9.--7-5-------5h7p5---5-7/9--------9------------------9--------
D------------------5/7-------7------------------------------------------
A-10-8.--7.--5-3--------------------------------------------------------
E-----------------------------------------------------------------------


e-----------------------------------------------------------------------
B---------------------------5-------------------------------------------
G-9\7p5----5----------------5-------------------------------------------
D-------7----7p5----5-------5-------------------------------------------
A----------------7----7\5p3-3-------------------------------------------
E-----------------------------------------------------------------------