20121223

BILLY IDOL WINTER WONDERLAND TAB (SOLOS)

Billy Idol's awesome version of Winter Wonderland with brilliant guitar solo parts played by Brian Tichy. TAB under the video.

MERRY X'MAS EVERYONE! 


BILLY IDOL WINTER WONDERLAND TAB

PDF >>

Intro

e------------13--------------------------10-----------------------------
B---13(15)------(15).--13~-------9(11)------(11).--9~-------------------
G-----------------------------------------------------------------------
D-----------------------------------------------------------------------
A-----------------------------------------------------------------------
E-----------------------------------------------------------------------


e-----------------------------------------------------------------------
B------------8-8---11---------------------------------------------------
G---10(12)------------10---10-10-----8~---------------------------------
D-----------------------------------------------------------------------
A-----------------------------------------------------------------------
E-----------------------------------------------------------------------


Verse 1

e-----------------------------------------------------------------------
B-------13-11~--------------13-11~-------/11.--13-11~-------------13-11~
G-/12.----------------/12.----------------------------------/13.--------
D-----------------------------------------------------------------------
A-----------------------------------------------------------------------
E-----------------------------------------------------------------------



e-----------------------------------------------------------------------
B---13/15.--15-15.--13~---------------11.---11-11.--9~------------------
G-----------------------------------------------------------------------
D-----------------------------------------------------------------------
A-----------------------------------------------------------------------
E-----------------------------------------------------------------------


e-----------------------------------------------------------------------
B-----------------------------------------------------------------------
G---10/12.--12-12.---12-10.--10-10.--10-8~------------------------------
D-----------------------------------------------------------------------
A-----------------------------------------------------------------------
E-----------------------------------------------------------------------


Verse 2

e-----------------------------------------------------------------------
B-------13-11~--------------13-11~--------11.--13-11~-------------13-11~
G-/12.----------------/12.-----------------------------------13.--------
D-----------------------------------------------------------------------
A-----------------------------------------------------------------------
E-----------------------------------------------------------------------


e-----------------------------------------------------------------------
B---13/15.--15-15.--13~------------13\11.---11-11.--9~------------------
G-----------------------------------------------------------------------
D-----------------------------------------------------------------------
A-----------------------------------------------------------------------
E-----------------------------------------------------------------------


e-----------------------------------------------------------------------
B-----------------------------------------------------------------------
G---12.--12-12.---12-10.--10-10.--10-8~---------------------------------
D-----------------------------------------------------------------------
A-----------------------------------------------------------------------
E-----------------------------------------------------------------------


Chorus 1

e-----------------------------------------------------------------------
B-----------------------------------------------------------------------
G-4-----------5-----------4------------------4-----------5----------4---
D-5-----------4-----------5------------------5-----------4----------5---
A-5-----------5-----------5------------------5-----------5----------5---
E-3-----------------------3------------------3----------------------3---


e-----------------------------------------------------------------------
B-----------------------------------------------------------------------
G-7-----------8-----------7------------------9-----------8----------7---
D-8-----------7-----------8------------------8-----------7----------6---
A-8-----------8-----------8------------------10----------8----------8---
E-6-----------------------6------------------8----------------------6---


Verse 3

e-----------------------------------------------------------------------
B-------13-11~--------------13-11~--------11.--13-11~-------------13-11~
G-/12.-----------------12.----------------------------------/13.--------
D-----------------------------------------------------------------------
A-----------------------------------------------------------------------
E-----------------------------------------------------------------------


e-----------------------------------------------------------------------
B---13/15.--15-15.--13~------------13\11.---11-11.--9~------------------
G-----------------------------------------------------------------------
D-----------------------------------------------------------------------
A-----------------------------------------------------------------------
E-----------------------------------------------------------------------


e-----------------------------------------------------------------------
B-----------------------------------------------------------------------
G---12.--12-12.---12-10.--10-10.--10-8~---------------------------------
D-----------------------------------------------------------------------
A-----------------------------------------------------------------------
E-----------------------------------------------------------------------


Solo

e-----------------------------------------------------------------------
B---/11.--11-11~-------------------/11.--11------11~--------------------
G------------------------------------------/12--------------------------
D-----------------------------------------------------------------------
A-----------------------------------------------------------------------
E-----------------------------------------------------------------------


e-----------------------------------------------------------------------
B---/11.--13-11~-------------------/11.--11------11~--------------------
G------------------------------------------/13--------------------------
D-----------------------------------------------------------------------
A-----------------------------------------------------------------------
E-----------------------------------------------------------------------


e------------13--------------------------------10-----------------------
B---13(15)------(15).--13~--------------9(11)-----(11).--9~-------------
G-----------------------------------------------------------------------
D-----------------------------------------------------------------------
A-----------------------------------------------------------------------
E-----------------------------------------------------------------------


e-----------------------------------------------------------------------
B------------8-8.--11---------------------------------------------------
G---10(12)------------(12)(10)p8-10.--8~--------------------------------
D-----------------------------------------------------------------------
A-----------------------------------------------------------------------
E-----------------------------------------------------------------------


Chorus 2

e-----------------------------------------------------------------------
B-----------------------------------------------------------------------
G-4----------5----------4-----5.--3h4----5.--3--------------------------
D-5----------4----------5-----5.--3----5-5.--3--------------------------
A-5----------5----------5-----------------------------------------------
E-3---------------------3-----------------------------------------------


e-----------------------------------------------------------------------
B-----------------------------------------------------------------------
G-4----------5----------4-----5.--3h4----5.--3--------------------------
D-5----------4----------5-----5.--3----5-5.--3--------------------------
A-5----------5----------5-----------------------------------------------
E-3---------------------3-----------------------------------------------


e-----------------------------------------------------------------------
B-----------------------------------------------------------------------
G-7----------8----------7-----8.--6h7----8.--6--------------------------
D-8----------7----------8-----8.--6----8-8.--6--------------------------
A-8----------8----------8-----------------------------------------------
E-6---------------------6-----------------------------------------------


e-----------------------------------------------------------------------
B-----------------------------------------------------------------------
G-9-----------8----------7----------------------------------------------
D-8-----------7----------6----------------------------------------------
A-10----------8----------8----------------------------------------------
E-8----------------------6----------------------------------------------



Final verse

e-----------------------------------------------------------------------
B-------13-11~--------------13-11~--------11.--13-11~-------------13-11~
G-/12.----------------/12.----------------------------------/13.--------
D-----------------------------------------------------------------------
A-----------------------------------------------------------------------
E-----------------------------------------------------------------------


e-----------------------------------------------------------------------
B---13/15.--15-15.--13~------------13\11.---11-11.--9~------------------
G-----------------------------------------------------------------------
D-----------------------------------------------------------------------
A-----------------------------------------------------------------------
E-----------------------------------------------------------------------


e-----------------------------------------------------------------------
B-----------------------------------------------------------------------
G---12.--12-12.---12-10.--10-10.--10-8~---------------------------------
D-----------------------------------------------------------------------
A-----------------------------------------------------------------------
E-----------------------------------------------------------------------


e-----------------------------------------------------------------------
B-----------------------------------------------------------------------
G---10(12)---(12).-(12).--(12)(10).--10.-10.--10-8~---------------------
D-----------------------------------------------------------------------
A-----------------------------------------------------------------------
E-----------------------------------------------------------------------


e-----------------------------------------------------------------------
B-----------------------------------------------------------------------
G---10(12)---(12).-(12).--(12)(10).--10.-10.--10-8~---------------------
D-----------------------------------------------------------------------
A-----------------------------------------------------------------------
E-----------------------------------------------------------------------


e-----------------------------------------------------------------------
B-----------------------------------------------------------------------
G---8-----8-----8-----8-----7---7-7---7-7---7-7---7---------------------
D---7-----7-----7-----7-----6---6-6---6-6---6-6---6---------------------
A---8-----8-----8-----8-----8---8-8---8-8---8-8---8---------------------
E---------------------------6---6-6---6-6---6-6---6---------------------


e-----------------------------------------------------------------------
B---------8-----9-----10-----11-----11.----11---------------------------
G---8---------8-----8------8------8-10.----10(12)~----------------------
D-----------------------------------------------------------------------
A-----------------------------------------------------------------------
E-----------------------------------------------------------------------