20121217

CARLOS SANTANA BLACK MAGIC WOMAN TAB

Steve Hague shows us how to play Black Magic Woman by Carlos Santana.
Thank you Steve, great job. Your Les Paul sounds awesome ...
Black Magic Woman was originally written by a hungarian guitarist, Gabor Szabo.
See the TABS of the complete album version of Black Magic Woman below.



CARLOS SANTANA BLACK MAGIC WOMAN TAB                          Printable tab here

intro solo

e-----------------------------------------------------------------------
H-6h8p6~~~~~------------------------------------------------------------
G--------------------------------7/9\7~~~~~~~---------------------------
D-----------------------------------------------------------------------
A-----------------------------------------------------------------------
E-----------------------------------------------------------------------


e-----------------------------------------------------------------------
H-6h8p6~~~~~------------------8.----------------------------------------
G--------------------------------7/9\7~~~~~~~---------------------------
D-----------------------------------------------------------------------
A-----------------------------------------------------------------------
E-----------------------------------------------------------------------


e-----------------------------------------------------------------------
H-----------------------------------------------------------------------
G-14.-----12.-----10\9~~--------12.-----10.-----9\7~~~------------------
D-------x-------x---------------------x-------x-------------------------
A-----------------------------------------------------------------------
E-----------------------------------------------------------------------


e---------------------------------------------------------------10.-----
H-------------------------------------------------------------10--------
G-14.-----12.-----10\9~~--------12.-----10.-----9.----------10----------
D-------x-------x---------------------x-------x---------12--------------
A-----------------------------------------------------12--12------------
E---------------------------------------------------10------------------


e-10--------------------------------------------------------------------
H----13-(15)(13)p10--13(15)~~---------(13)p10.--------------------------
G-----------------------------------------------------------------------
D-----------------------------------------------------------------------
A-----------------------------------------------------------------------
E-----------------------------------------------------------------------


e---------10------------------------------------------------------------
H-13(15)-----13-10------------------------------------------------------
G------------------12-(14)(12)p10\9~~-----------------------------------
D-----------------------------------------------------------------------
A-----------------------------------------------------------------------
E-----------------------------------------------------------------------


e---------12h13.--12.--13p12p10-----------------------------------------
H-10-13.------------------------13(15)--(13)(15)(13)p10.----------------
G-----------------------------------------------------------------------
D-----------------------------------------------------------------------
A-----------------------------------------------------------------------
E-----------------------------------------------------------------------


e-----------10----------------------------------------------------------
H-13(15)-------13-10----------------------------------------------------
G----------------------12(14)--------(14)p12.---------------------------
D-----------------------------------------------------------------------
A-----------------------------------------------------------------------
E-----------------------------------------------------------------------


e------10---12-13(15)~~-----15(17)--------(15)p13--13~-----18(20)~\-----
H----11------------------------------------------15---------------------
G-12--------------------------------------------------------------------
D-----------------------------------------------------------------------
A-----------------------------------------------------------------------
E-----------------------------------------------------------------------


e-10.------------------------------------------------------------10.----
H---------------------10-----------------------------------------10.----
G-----(14)(12)p10h12-----12-10h12p10-----------------------------10.----
D------------------------------------12--10-12-10-----------------------
A-------------------------------------------------12-11-10\8------------
E------------------------------------------------------------10-8-------


Chords

e----5-------5-------5-------3-------5---5---5--------------------------
H----6-------5-------6-------3-------6---5---6--------------------------
G----5-------5-------5-------3-------5---5---5--------------------------
D----7-------5-------7-------3-------7---5---7--------------------------
A----5-------7-------5-------5-------5---7---5--------------------------
E------------5---------------3-----------5------------------------------


Solo (1:52)

e----------10-----------------------------------------------------------
H-13(15)------13(15)---(15)(13)p10--------------------------------------
G-----------------------------------------------------------------------
D-----------------------------------------------------------------------
A-----------------------------------------------------------------------
E-----------------------------------------------------------------------


e-13p12p10.-------------------------------------------------------------
H------------(15)(13)p10.-----------------------------------------------
G--------------------------(13)(12)p10\9~~------------------------------
D-----------------------------------------------------------------------
A-----------------------------------------------------------------------
E-----------------------------------------------------------------------


e--------------12-----h13p12p10--------------------13(15)---------------
H------10---13------------------13(15)~~--------------------------------
G-9/10------------------------------------------------------------------
D-----------------------------------------------------------------------
A-----------------------------------------------------------------------
E-----------------------------------------------------------------------


e-15(17)(15)p13---15(17)(15)p13~~------------18(20)~~\\-----------------
H-----------------------------------------------------------------------
G-----------------------------------------------------------------------
D-----------------------------------------------------------------------
A-----------------------------------------------------------------------
E-----------------------------------------------------------------------


e-12h13---p12p10.--12h13---p12p10.-----------10-------------------------
H-----------------------------------13(15)~-------13---10---------------
G-----------------------------------------------------------------------
D-----------------------------------------------------------------------
A-----------------------------------------------------------------------
E-----------------------------------------------------------------------


e-----------------------------------------------------------------------
H--------------------10~-------10---13--p10-----------------------------
G-12(14)(12)p10------10~--------------------12(14)(12)p10---------------
D---------------12.-------12------------------------------12.-----------
A-----------------------------------------------------------------------
E-----------------------------------------------------------------------


e-----------------------------------------------------------------------
H-13(15).-------15(17).---------13(15).---------------------------------
G--------------------------------------------------(14)(12)(14)~~~------
D-----------------------------------------------------------------------
A-----------------------------------------------------------------------
E-----------------------------------------------------------------------


e------------10---------------------------------------------------------
H-13(15)~~------13-10---------------------------------------------------
G---------------------12-(14)(12)p10\9~~~-------------------------------
D-----------------------------------------------------------------------
A-----------------------------------------------------------------------
E-----------------------------------------------------------------------


e----------------10----------------------------------10-----------------
H----10-13(15)--------13(15)---(13)(15)(13)p10.------13(15)-------------
G-10----------------------------------------------------------10-10~----
D-----------------------------------------------------------------------
A-----------------------------------------------------------------------
E-----------------------------------------------------------------------


e---------10---12-13(15)~~-------15(17)----18(20)---20(22)(20)(22)~\----
H------11---------------------------------------------------------------
G-12--------------------------------------------------------------------
D-----------------------------------------------------------------------
A-----------------------------------------------------------------------
E-----------------------------------------------------------------------


e----------------10~~-----------10-------10-----13p10h13p10h13p10-------
H-------------13------10---13------10h13--------------------------------
G-12(14)~~--------------------------------------------------------------
D-----------------------------------------------------------------------
A-----------------------------------------------------------------------
E-----------------------------------------------------------------------


e-----------------------------------------------------------------------
H-13p10h13p10-----------------------------------------------------------
G-------------12p10h12p10------------------------------------9h10~~-----
D-------------------------12---10---12\----------------10h12------------
A---------------------------------------------10h11h12------------------
E-----------------------------------------------------------------------



SEE ALSO

I LOVE YOU MUCH TOO MUCH TAB by Santana



MOONFLOWER TAB by Santana



REVELATIONS TAB by Santana

    


MORE ON GUITAR TABS A-Z