20121228

EXTREME MORE THAN WORDS TAB


Short lesson how to play Extreme - More Than Words with a single acoustic guitar.
The song is played in Half Step Down tuning. The main parts are shown in the video.
Download the GP5, GP6 and PDF files below.



EXTREME MORE THAN WORDS TAB

GP5 + GP6 + PDF >>

Intro

eb---------3---x---3-------3---x---3-------3---x-------3.--0---x--------
Bb---------3---x---3-------3---x---3-------3---x-------3.--3---x--------
Gb---------0---x---0-------0---x---0-------0---x-------0.--0---x--------
Db----------------------------------------------------------------------
Ab-----------------2-----------x---3-----------x---3.--3.--3---x--------
Eb-----3-------x--------------------------------------------------------


eb-0-------0---x-------3.--0---x---0-------0---x---2-------3---x--------
Bb-1-------1---x-------1.--1---x---1-------1---x---3-------3---x--------
Gb-0-------0---x-------0.--0---x---0-------0---x---2---2-------x--------
Db-------------------------------------------------0--------------------
Ab-0-----------x---0.--0.--0---x---3-----------x---------------x--------
Eb----------------------------------------------------------------------


eb-3-------3---x---3-------3---x---3-------3---x-------3.--0---x--------
Bb-3-------3---x---3-------3---x---3-------3---x-------3.--3---x--------
Gb-0-------0---x---0-------0---x---0-------0---x-------0.--0---x--------
Db----------------------------------------------------------------------
Ab-----------------2---------------3-----------x---3.--3.--3---x--------
Eb-3-----------x---------------x----------------------------------------


eb-0-------0---x-------3.--0---x---0-------0---x---2-------3---x--------
Bb-1-------1---x-------1.--1---x---1-------1---x---3-------3---x--------
Gb-0-------0---x-------0.--0---x---0-------0---x---2---2-------x--------
Db-------------------------------------------------0-----------x--------
Ab-0-----------x---0.--0.--0---x---3-----------x------------------------
Eb----------------------------------------------------------------------


Verse 1

eb-3-------3---x---3-------3---x---3-------3---x-------3.--0---x--------
Bb-3-------3---x---3-------3---x---3-------3---x-------3.--3---x--------
Gb-0-------0---x---0-------0---x---0-------0---x-------0.--0---x--------
Db----------------------------------------------------------------------
Ab-----------------2-----------x---3-----------x---3.--3.--3---x--------
Eb-3-----------x--------------------------------------------------------


eb-0-------0---x-------3.--0---x---0-------0---x---2-------3---x--------
Bb-1-------1---x-------1.--1---x---1-------1---x---3-------3---x--------
Gb-0-------0---x-------0.--0---x---0-------0---x---2---2-------x--------
Db-------------------------------------------------0-----------x--------
Ab-0-----------x---0.--0.--0---x---3-----------x------------------------
Eb----------------------------------------------------------------------


eb-3-------3---x---3-------3---x---3-------3---x-------3.--0---x--------
Bb-3-------3---x---3-------3---x---3-------3---x-------3.--3---x--------
Gb-0-------0---x---0-------0---x---0-------0---x-------0.--0---x--------
Db----------------------------------------------------------------------
Ab-----------------2-----------x---3-----------x---3.--3.--3---x--------
Eb-3-----------x--------------------------------------------------------


eb-0-------0---x-------3.--0---x---0-------0---x---2-------3---x--------
Bb-1-------1---x-------1.--1---x---1-------1---x---3-------3---x--------
Gb-0-------0---x-------0.--0---x---0-------0---x---2---2-------x--------
Db-------------------------------------------------0-----------x--------
Ab-0-----------x---0.--0.--0---x---3-----------x------------------------
Eb----------------------------------------------------------------------


Bridge

eb-0-------0---x---0-------0---x---0-------0---x-------3.--0---x--------
Bb-0-------0---x---0-------0---x---1-------1---x-------1.--1---x--------
Gb-0-------0---x---0-------0---x---0-------0---x-------0.--0---x--------
Db----------------------------------------------------------------------
Ab-----------------2-----------x---0-----------x---0.--0.--0---x--------
Eb-0-----------x--------------------------------------------------------


eb-----2-------x---2-------2---x---3.------3.------2.-------0.----------
Bb-----1-------x---1-------1---x---3.------3.------3.-------3.----------
Gb-----2-------x---2-------2---x---0.------0.------2.-------2.----------
Db-0.--0-------x---0-------0---x----------------------------------------
Ab----------------------------------------------------------------------
Eb---------------------------------3.------3.------2.-------2.----------


Chorus

eb-0-------0---x---0-------0---x---0-------0---x-------3---0---x--------
Bb-0-------0---x---0-------0---x---1-------1---x-------1---1---x--------
Gb-0-------0---x---0-------0---x---0-------0---x-------0---0---x--------
Db----------------------------------------------------------------------
Ab-----------------2-----------x---0-----------x---0.--0---0---x--------
Eb-0-----------x--------------------------------------------------------


eb-----2-------x---2-------2---x---1-------1---x---1-------1---x--------
Bb-----1-------x---1-------1---x---0-------0---x---0-------0---x--------
Gb-----2-------x---2-------2---x---0-------0---x---0-------0---x--------
Db-0.--0-------x---0-----------x----------------------------------------
Ab-------------------------------------------------2-----------x--------
Eb---------------------------------3-----------x------------------------


eb-0-------0---x-------0.--0---x---3-------3---x-------3.--3---x--------
Bb-1-------1---x-------1.--1---x---4-------4---x-------4.--4---x--------
Gb-0-------0---x-------0.--0---x---5-------5---x-------5.--5---x--------
Db----------------------------------------------------------------------
Ab-3-----------x---3.--3.--3---x---3-----------x---3.--3.--3---x--------
Eb----------------------------------------------------------------------


eb-3-------3---x-------3---3-------3.------3.--x---3.------3.--x--------
Bb-3-------3---x-------3---3-------3.------3.--x---3.------3.--x--------
Gb-0-------0---x-------0---0-------0.------0.--x---0.------0.--x--------
Db-------------------------------------------------2.-------------------
Ab-----------------------------------------2.--x-----------2.--x--------
Eb-3-----------x---3---3---3p2-----0.-----------------------------------


eb-0---------------------------2----------------------------------------
Bb-1---------------------------1----------------------------------------
Gb-0---------------------------2----------------------------------------
Db-2---------------------------0----------------------------------------
Ab-0---------------------------0----------------------------------------
Eb----------------------------------------------------------------------




DOWNLOAD THE COMPLETE TAB HERE



  • click 'Free Download'
  • add your e-mail address
  • you will get an e-mail with your download links (in a few seconds)
  • download the Guitar Pro 6 tab + GP5 + PDF for free
  • and that's all ...


Guitar Pro: a complete workshop for guitarists at an affordable price