20121206

LA BAMBA SOLO TAB

There is a short lesson how to play the guitar solo of La Bamba by Los Lobos.
Originally, La Bamba was a mexican folk song. In the 50's Ritchie Valens made his version and got famous soon. After his early death Los Lobos covered the song and made this cool solo. You'll need a Fender Stratocaster and a Twin Reverb to play it.
TAB helps below.


LOS LOBOS LA BAMBA SOLO TAB


e-----------------------------------------------------------------------
B-----------------------------------------------------------------------
G-0-0-0-0-0-0-0-0--0-0-0-0-0-0-0-0--0-0-0-0-0-0-0-0--0-0-0-0-0-0-0-0----
D-----------------------------------------------------------------------
A-----------------------------------------------------------------------
E-----------------------------------------------------------------------


e-----------------------------------------------------------------------
B-----------------------------------------------------------------------
G-0-0-0-0-0-0-0-0--0-0-0-0-0-0-0-0--0-0-0-0-0-0-0-----------------------
D-----------------------------------------------------------------------
A-----------------------------------------------------------------------
E-----------------------------------------------------------------------


e-----------------------------------------------------------------------
B-----------------------------------------------------------------------
G-0-2-4-4h5---4-2-4-2.--0-2-0---0-----0---------------------------------
D-----------------------------3---2-3---2--3-0-2---0--------------------
A------------------------------------------------3---2-3-0--------------
E-----------------------------------------------------------------------



e-----------------------------------0-1---0-1---0-1--3-3-3-3-3-3-3-3----
B----------------------------0-1-3------3-----3-------------------------
G------------------------0-2--------------------------------------------
D------------------0-2-3------------------------------------------------
A-2---0-----0-2-3-------------------------------------------------------
E---3---1-3-------------------------------------------------------------


e-3-3-3-3-3-3-3-3--3-3-3-3-3-3-3-3--3/-(12)\----------------------------
B-----------------------------------------------------------------------
G-----------------------------------------------------------------------
D-----------------------------------------------------------------------
A-----------------------------------------------------------------------
E-----------------------------------------------------------------------


e-5---3h5p3---1h3p0---1---0------0--------------------------------------
B-----------------------3---1--3---1-3-0h1p0---0------------------------
G--------------------------------------------2---0----------------------
D-----------------------------------------------------------------------
A-----------------------------------------------------------------------
E-----------------------------------------------------------------------


e-----------------------------------------------------------------------
B-----------------------------------------------------------------------
G-2p0---0-----0------------------0-2p0-0--------------------------------
D-----3---2-3---2-3--2p0---0-2-3----------------------------------------
A------------------------3----------------------------------------------
E-----------------------------------------------------------------------


e-----------------------------------------------------------------------
B-----------------------------------------------------------------------
G-4p0-0-0--7p0-0-0--4p0-0-0--7p0-0-0--4p0-0-0--9p0-0-0--7p0-0-0-9-10----
D-----------------------------------------------------------------------
A-----------------------------------------------------------------------
E-----------------------------------------------------------------------


e-----------------------------------------------------------------------
B-----------------------------------------------------------------------
G-12-12-12-12-12-12-12-12--12-12-12-12-12-12-12-12----------------------
D-----------------------------------------------------------------------
A-----------------------------------------------------------------------
E-----------------------------------------------------------------------


e-----------------------------------------------------------------------
B-----------------------------------------------------------------------
G-12-12-12-12-12-12-12-12--12-12-12-12-12-12-12-12--12\\----------------
D-----------------------------------------------------------------------
A-----------------------------------------------------------------------
E-----------------------------------------------------------------------