20121211

QUEEN DONT STOP ME NOW SOLO WITH TAB

Wynand B plays an amazing cover of 13 Brian May guitar solos here.
All of them is perfect but now we need the Don't Stop Me Now solo.
For that guitar solo go to 5:45 in this video.
TAB will help below.



QUEEN DON'T STOP ME NOW SOLO TAB


e-----------------------------------------------------------------------
B-----------------------------------------------------------------------
G-12(14)~~~~~~(14)(12)p10-12(14)~~~~~~~~~~~(14)(12)p10-12p10\9-10~~~----
D-----------------------------------------------------------------------
A-----------------------------------------------------------------------
E-----------------------------------------------------------------------


e-----------------------------------------------------------------------
B-/11-10.---------------------------------------------------------------
G----------12.--10.--12(14)---(13).--(14).--(13).--(14)(12)-------------
D----------------------------------------------------------10~----------
A-----------------------------------------------------------------------
E-----------------------------------------------------------------------


e-----------------------------------------------------------------------
B-----------------------------------------------------------------------
G-15(17)~~~~~~(17)(15)p14-15(17)~~~~~~~~~~(17)(15)p14-15p14-12-14~~~----
D-----------------------------------------------------------------------
A-----------------------------------------------------------------------
E-----------------------------------------------------------------------



e-----------------------------------------------------------------------
B-----------------------------------------------------------------------
G-/14(15)-14.-12.-10.-12(14)--12.-(14).-12.-(14).-12.-(14)(12)-10~~~----
D-----------------------------------------------------------------------
A-----------------------------------------------------------------------
E-----------------------------------------------------------------------


e-----------------------------------------------------------------------
B-----------------------------------------------------------------------
G-------------------10h12p10--10--10--10h12p10--10--10--10h12p10--10----
D-5h7p5\3~~~---/12----------12------12--------12------12----------------
A-----------------------------------------------------------------------
E-----------------------------------------------------------------------


e-----------------------------------------------------------------------
B-/15---15.--15.--15.--15.--15~~~~~\------------------------------------
G-----------------------------------------------------------------------
D-----------------------------------------------------------------------
A-----------------------------------------------------------------------
E-----------------------------------------------------------------------