20121217

STAIRWAY TO HEAVEN TAB (COVER BY PRIVETTRICKER)


Privettricker shows us how to play Stairway To Heaven by Led Zeppelin on guitar.
See the TAB under the video.



STAIRWAY TO HEAVEN TAB

PDF >>

Intro

e-------------5.--7-----------7.--8-----------8.--2-----------2.--------
B---------5-----------5---------------5---------------3-----------------
G-----5-------------------5---------------5---------------2-------------
D-7---------------6---------------5---------------4---------------------
A-----------------------------------------------------------------------
E-----------------------------------------------------------------------


e-0-------------------0-------------------------------------------------
B-----1-------1-----------1---------------------------------------------
G---------2-------------------2---0---2---2-----------------------------
D-3---------------------------------------------------------------------
A---------------------------------2---0---0-----------0--/8---7---------
E-----------------------------------------------------------------------


e-------------5.--7-----------7.--8-----------8.--2-----------2.--------
B---------5-----------5---------------5---------------3-----------------
G-----5-------------------5---------------5---------------2-------------
D-7---------------6---------------5---------------4---------------------
A-----------------------------------------------------------------------
E-----------------------------------------------------------------------





e-0-------------------0-------------------------------------------------
B-----1-------1-----------1---------------------------------------------
G---------2-------------------2---0---2---2-----------------------------
D-3---------------------------------------------------------------------
A---------------------------------2---0---0---------------0---2---------
E-----------------------------------------------------------------------


e-------------1---2-----------2.--0-----------0.------------------------
B---------------------3---------------1-----------0h1-------------------
G---------0---------------2---------------2-----------2-----------------
D-----2-----------0---------------3---------------2---------------------
A-3-------------------------------------------------------0---2---------
E-----------------------------------------------------------------------


e-----------------------------3---3p2-----------------------------------
B-------------1---3-------------------3---------------------------------
G---------0-----------0-------------------2-----------------------------
D-----2-------------------0-------0-------------------------------------
A-3-------------------------------------------------------0---2---------
E-----------------3-----------------------------------------------------


e-------------1---2-----------2.--0-----------0.------------------------
B---------------------3---------------1-----------0h1-------------------
G---------0---------------2---------------2-----------2-----------------
D-----2-----------0---------------3---------------2---------------------
A-3-------------------------------------------------------0---2---------
E-----------------------------------------------------------------------


e-----------------------------2-----------------------------------------
B-------------1-----------3-------0---1---1-----------------------------
G---------0-----------2-------------------------------------------------
D-----2-----------0---------------3-------3-----------------------------
A-3---------------------------------------------------------------------
E-----------------------------------------------------------------------


1:01

e-------------5.--7-----------7.--8-----------8.--2-----------2.--------
B---------5-----------5---------------5---------------3-----------------
G-----5-------------------5---------------5---------------2-------------
D-7---------------6---------------5---------------4---------------------
A-----------------------------------------------------------------------
E-----------------------------------------------------------------------


e-0-------------------3/5---3---1h3p1-----------------------------------
B-----1-------1-----------------------0---1---1-------------------------
G---------2-------------------------------------------------------------
D-3-------------------------3---------0---2---2-------------------------
A-----------------------------------------------------------------------
E-----------------------------------------------------------------------


e-------------5.--7-----------7.--8-----------8.--2-----------2.--------
B---------5-----------5---------------5---------------3-----------------
G-----5-------------------5---------------5---------------2-------------
D-7---------------6---------------5---------------4---------------------
A-----------------------------------------------------------------------
E-----------------------------------------------------------------------


e-0-------------------0-------------------------------------------------
B-----1-------1-----------1---------------------------------------------
G---------2-------------------2---0---2---2-----------------------------
D-3---------------------------------------------------------------------
A---------------------------------2---0---0---------------0---2---------
E-----------------------------------------------------------------------


e-------------1---2-----------2.--0-----------0.------------------------
B---------------------3---------------1-----------0h1-------------------
G---------0---------------2---------------2-----------2-----------------
D-----2-----------0---------------3---------------2---------------------
A-3-------------------------------------------------------0---2---------
E-----------------------------------------------------------------------


e-----------------------------3---3p2-----------------------------------
B-------------1---3-------------------3---------------------------------
G---------0-----------0-------------------2-----------------------------
D-----2-------------------0-------0-------------------------------------
A-3-------------------------------------------------------0---2---------
E-----------------3-----------------------------------------------------


e-------------1---2-----------2.--0-----------0.------------------------
B---------------------3---------------1-----------0h1-------------------
G---------0---------------2---------------2-----------2-----------------
D-----2-----------0---------------3---------------2---------------------
A-3-------------------------------------------------------0---2---------
E-----------------------------------------------------------------------


e-------------1---2-----------2---0---0---0-----------------------------
B---------------------3-----------0---1---1-----------------------------
G---------0---------------2---------------------------------------------
D-----2-----------0---------------3---3---3-----------------------------
A-3---------------------------------------------------------------------
E-----------------------------------------------------------------------

1:55

e-------------5.--7-----------7.--8-----------8.--2-----------2.--------
B---------5-----------5---------------5---------------3-----------------
G-----5-------------------5---------------5---------------2-------------
D-7---------------6---------------5---------------4---------------------
A-----------------------------------------------------------------------
E-----------------------------------------------------------------------


e-0-------------------0-------------------------------------------------
B-----1-------1-----------1---------------------------------------------
G---------2-------------------2---0---2---2-----------------------------
D-3---------------------------------------------------------------------
A---------------------------------2---0---0-----------0--/8---7---------
E-----------------------------------------------------------------------


e-----------------------7---------------8---------------2---------------
B-------------5-------5---5-----------5---5-----------3---3-------------
G---------5---------5-------5-------5-------5-------2-------2-----------
D-----7-----------6-----------6---5-----------5---4-----------4---------
A-0---------------------------------------------------------------------
E-----------------------------------------------------------------------


e-------0---------------0-----------------------------------------------
B-----1-----1---------1---1---------------------------------------------
G---2---------2-----2-------2-----0---2---2-----------------------------
D-3---------------3-----------3-----------------------------------------
A---------------------------------2---0---0-----------------------------
E-----------------------------------------------------------------------


2:20

e-3-----3---3-3-3---3-----0-----0-----2---2-2-2---2---2-2-2---2-2-------
B-3-----1---1-1-1---1-----1-----3-----3---3-3-3---3---3-3-3---3-3-------
G-0-----2---2-2-2---2-----0-----2-----2---2-2-2---2---2-2-2---2-2-------
D-0-----2---2-2-2---2-----2-----0-----0---0-0-0---0---0-0-0---0-0-------
A-2-----0---0-0-0---0-----0---------------------------------------------
E-----------------------------------------------------------------------


e-3---3-3-3---3-------0-------7-----5-----3-----5---5-5-0-0-------------
B-1---1-1-1---1-------1-------8-----7-----5-----7---7-7-0-0-------------
G-2---2-2-2---2-------0-------9-----7-----5-----7---7-7-0-0-------------
D-2---2-2-2---2-------2-------0-----0-----0-----0---0-0-----------------
A-0---0-0-0---0-------0-------------------------------------------------
E-----------------------------------------------------------------------


e-3---3-3-3---3-----0-----0-----2---2-2-2---2---2-2-2---2-2-------------
B-1---1-1-1---1-----1-----3-----3---3-3-3---3---3-3-3---3-3-------------
G-2---2-2-2---2-----0-----2-----2---2-2-2---2---2-2-2---2-2-------------
D-2---2-2-2---2-----2-----0-----0---0-0-0---0---0-0-0---0-0-------------
A-0---0-0-0---0-----0---------------------------------------------------
E-----------------------------------------------------------------------


e-3---3-3-3---3-------0-------7-----5-----3-----5-----------------------
B-1---1-1-1---1-------1-------8-----7-----5-----7-----------------------
G-2---2-2-2---2-------0-------9-----7-----5-----7-----------------------
D-2---2-2-2---2-------2-------0-----0-----0-----0-----------------------
A-0---0-0-0---0-------0-----------------------------------------0h2-----
E-----------------------------------------------------------------------


e-----------------------------------------------------------------------
B-------------1---------------3---0h1-----------------1-----------------
G---------0---------------0-----------2-----------2---------------------
D-----2---------------0-----------------------2-------------------------
A-3---------------0h2---------------------0---------------0---2---------
E-----------------------------------------------------------------------


e---------------------------0-----0-------------------------------------
B-------------1-------------1-----1-------------------------------------
G---------0---------------0-2-----2-------------------------------------
D-----2---------------0-----3-----2-------------------------------------
A-3---------------0h2-------3-----0-----------------------0---2---------
E-----------------------------------------------------------------------


e-----------------------------------------------------------------------
B-------------1---------------3---0h1-----------------1-----------------
G---------0---------------0-----------2-----------2---------------------
D-----2---------------0-----------------------2-------------------------
A-3---------------0h2---------------------0---------------0---2---------
E-----------------------------------------------------------------------


e---------------------------0-----0-------------------------------------
B-------------1-------------1-----1-------------------------------------
G---------0---------------0-2-----2-------------------------------------
D-----2---------------0-----3-----2-------------------------------------
A-3---------------0h2-------3-----0-----------------------0---2---------
E-----------------------------------------------------------------------


e-----------------------------------------------------------------------
B-------------1---------------3-----------------------------------------
G---------0---------------0---------------------------------------------
D-----2---------------0-------------------------------------------------
A-3---------------0h2---------------------------------------------------
E-----------------------------------------------------------------------


3:14

e-3---3-3-3---3-----0-----0-----2---2-2-2---2---2-2-2---2-2-------------
B-1---1-1-1---1-----1-----3-----3---3-3-3---3---3-3-3---3-3-------------
G-2---2-2-2---2-----0-----2-----2---2-2-2---2---2-2-2---2-2-------------
D-2---2-2-2---2-----2-----0-----0---0-0-0---0---0-0-0---0-0-------------
A-0---0-0-0---0-----0---------------------------------------------------
E-----------------------------------------------------------------------


e-3---3-3-3---3-------0-------7-----5-----3-----5---5-5-0-0-------------
B-1---1-1-1---1-------1-------8-----7-----5-----7---7-7-0-0-------------
G-2---2-2-2---2-------0-------9-----7-----5-----7---7-7-0-0-------------
D-2---2-2-2---2-------2-------0-----0-----0-----0---0-0-----------------
A-0---0-0-0---0-------0-------------------------------------------------
E-----------------------------------------------------------------------


e-3---3-3-3---3-----0-----0-----2---2-2-2---2---2-2-2---2-2-------------
B-1---1-1-1---1-----1-----3-----3---3-3-3---3---3-3-3---3-3-------------
G-2---2-2-2---2-----0-----2-----2---2-2-2---2---2-2-2---2-2-------------
D-2---2-2-2---2-----2-----0-----0---0-0-0---0---0-0-0---0-0-------------
A-0---0-0-0---0-----0---------------------------------------------------
E-----------------------------------------------------------------------


e-3---3-3-3---3-------0-------7-----5-----3-----5-----------------------
B-1---1-1-1---1-------1-------8-----7-----5-----7-----------------------
G-2---2-2-2---2-------0-------9-----7-----5-----7-----------------------
D-2---2-2-2---2-------2-------0-----0-----0-----0-----------------------
A-0---0-0-0---0-------0----------------------------------------2--------
E-----------------------------------------------------------------------


e-----------------------------------------------------------------------
B-------------1---------------3---0h1-----------------1-----------------
G---------0---------------0-----------2-----------2---------------------
D-----2---------------0-----------------------2-------------------------
A-3---------------0h2---------------------0---------------0---2---------
E-----------------------------------------------------------------------


e---------------------------0-----0-------------------------------------
B-------------1-------------1-----1-------------------------------------
G---------0---------------0-2-----2-------------------------------------
D-----2---------------0-----3-----2-------------------------------------
A-3---------------0h2-------3-----0-----------------------0---2---------
E-----------------------------------------------------------------------


e-----------------------------------------------------------------------
B-------------1---------------3---0h1-----------------1-----------------
G---------0---------------0-----------2-----------2---------------------
D-----2---------------0-----------------------2-------------------------
A-3---------------0h2---------------------0---------------0---2---------
E-----------------------------------------------------------------------


e---------------------------0-----0-------------------------------------
B-------------1-------------1-----1-------------------------------------
G---------0---------------0-2-----2-------------------------------------
D-----2---------------0-----3-----2-------------------------------------
A-3---------------0h2-------3-----0-----------------------0---2---------
E-----------------------------------------------------------------------


e-----------------------------------------------------------------------
B-------------1---------------3-----------------------------------------
G---------0---------------0---------------------------------------------
D-----2---------------0-------------------------------------------------
A-3---------------0h2---------------------------------------------------
E-----------------------------------------------------------------------

5:36

e-------------------------------2---------------------------------------
B-------------1---------------3-3---------------------------------------
G---------0---------------0-----2---------------------------------------
D-----2---------------0---------0---------------------------------------
A-3---------------0h2---------------------------------------------------
E-----------------------------------------------------------------------


e-0-2-3------0-2-3------0-2-3---3---2-----------------------------------
B-3-3-3------3-3-3------3-3-3---3---3-----------------------------------
G-2-2-2------2-2-2------2-2-2---2---2-----------------------------------
D-0-0-0------0-0-0------0-0-0---0---0-----------------------------------
A-----------------------------------------------------------------------
E-----------------------------------------------------------------------


e----------2---2-2-2---0---0-0----------2---2-2-2---0-----0-------------
B------3---3---3-3-3---3---3-3------3---3---3-3-3---3-----3-------------
G------0---0---0-0-0---0---0-0------0---0---0-0-0---0-----0-------------
D------x---x---x-x-x---x---x-x------x---x---x-x-x---x-----x-------------
A-3----3---3---3-3-3---3---3-3-3----3---3---3-3-3---3-----3-------------
E-----------------------------------------------------------------------


e-0-2-3------0-2-3------0-2-3---3---2-----------------------------------
B-3-3-3------3-3-3------3-3-3---3---3-----------------------------------
G-2-2-2------2-2-2------2-2-2---2---2-----------------------------------
D-0-0-0------0-0-0------0-0-0---0---0-----------------------------------
A-----------------------------------------------------------------------
E-----------------------------------------------------------------------


e----------2---2-2-2---0---0-0-----------2---2-2-2---0---0-0-0----------
B------3---3---3-3-3---3---3-3-----3-----3---3-3-3---3---3-3-3----------
G------0---0---0-0-0---0---0-0-----0-----0---0-0-0---0---0-0-0----------
D------x---x---x-x-x---x---x-x-----x-----x---x-x-x---x---x-x-x----------
A-3----3---3---3-3-3---3---3-3-0---2-----2---2-2-2---2---2-2-2----------
E-----------------------------------------------------------------------

6:03 (solo backing) 10 times!!!

e---------0---0-0---------3---3-3-0-0-0-0-0---0-0---0-0---0-0-0-0-------
B---------1---1-1---------3---3-3-1-1-1-1-1---1-1---1-1---1-1-1-1-------
G-2---2---2---2-2-0-0-0---0---0-0-2-2-2-2-2---2-2---2-2---2-2-2-2-------
D-2---2---2---2-2-0-0-0---0---0-0-3-3-3-3-3---3-3---3-3---3-3-3-3-------
A-0---0---0---0-0-2-2-2---2---2-2-3-3-3-3-3---3-3---3-3---3-3-3-3-------
E-----------------3-3-3---3---3-3---------------------------------------


6:52   4 times!!!

e-----------------------------------------------------------------------
B-----------------------------------------------------------------------
G-----------------------------------------------------------------------
D-----------------------------------------------------------------------
A-7---7---x-x-x-x-5---5---x-x-x-x-3---x-3---x-3---x-3---x-3---x-3--5----
E-5---5---x-x-x-x-3---3---x-x-x-x-1---x-1---x-1---x-1---x-1---x-1--3----


7:10   3 times!!!

e-----------------------------------------------------------------------
B-----------------------------------------------------------------------
G-----------------------------------------------------------------------
D-----------------------------------------------------------------------
A-7---7---x-x-x-x-5---5---x-x-x-x---------------3---3-5/7---7-5.--3.----
E-5---5---x-x-x-x-3---3---x-x-x-x-1---1-3/5---5-------------------------

7:25

e-----------------------------0-0-0-----0---0-0-0-0-0---0-0-0-0---------
B-----------------------------1-1-1-----1---1-1-1-1-1---1-1-1-1---------
G-----------------------------2-2-2-----2---2-2-2-2-2---2-2-2-2---------
D-----------------------------3-3-3-----3---3-3-3-3-3---3-3-3-3---------
A-7---7---x-x-x-x-5---5---x-x-3-3-3-----3---3-3-3-3-3---3-3-3-3---------
E-5---5---x-x-x-x-3---3---x-x-------------------------------------------


e-0---0-----------3---3-------0-----0---0---0-0-0-0-0---0-0-0-0---------
B-1---1-----------0---0-------1-----1---1---1-1-1-1-1---1-1-1-1---------
G-2---2-----------0---0-------2-----2---2---2-2-2-2-2---2-2-2-2---------
D-2---2-----------0---0-------3-----3---3---3-3-3-3-3---3-3-3-3---------
A-0---0-------x-x-2---2-----x-3-----3---3---3-3-3-3-3---3-3-3-3---------
E-------------x-x-3---3-----x-------------------------------------------


7:35 The end


3times

e---------0---0-0---------3---3-3-0-0-0-0-0---0-0---0-0---0-0-0-0-------
B---------1---1-1---------3---3-3-1-1-1-1-1---1-1---1-1---1-1-1-1-------
G-2---2---2---2-2-0-0-0---0---0-0-2-2-2-2-2---2-2---2-2---2-2-2-2-------
D-2---2---2---2-2-0-0-0---0---0-0-3-3-3-3-3---3-3---3-3---3-3-3-3-------
A-0---0---0---0-0-2-2-2---2---2-2-3-3-3-3-3---3-3---3-3---3-3-3-3-------
E-----------------3-3-3---3---3-3---------------------------------------


e---------0---0-0---------3---3-3-0-------------------------------------
B---------1---1-1---------3---3-3-1-------------------------------------
G-2---2---2---2-2-0---0---0---0-0-2-------------------------------------
D-2---2---2---2-2-0---0---0---0-0-3-------------------------------------
A-0---0---0---0-0-2---2---2---2-2-3-------------------------------------
E-----------------3---3---3---3-3---------------------------------------


e---------0-------------------------------------------------------------
B-0---3-------3---1---0---1--p0---------------1-------------------------
G---------------------------------2p0-----0-------2---------------------
D-----------------------------------------------------------------------
A-----------------------------------------------------------------------
E-----------------------------------------------------------------------


e-8---8-8-8-8-8-8-------------------------------------------------------
B-5---5-5-5-5-5-5-------------------------------------------------------
G-5---5-5-5-5-5-5---------------------------------  :)   ---------------
D-7---7-7-7-7-7-7-------------------------------------------------------
A------------------------------------------------7--------------7\------
E-------------------------------------/5---3---0-----/5---3---0---------



SEE ALSO

STAIRWAY TO HEAVEN SOLO TAB by Thomas75s