20121219

STAIRWAY TO HEAVEN SOLO TAB (COVER BY THOMAS75S)


Thomas75s plays a perfect guitar cover of Led Zeppelin's Stairway To Heaven solo.
He also plays an improvisation after the solo. See the TAB below.



STAIRWAY TO HEAVEN SOLO TAB

PDF >>

GP5 + GP6 >>

e------------5----------------------------------------------------------
B--------------8p5------------------------------------------------------
G---7(9)~~---------7p5---7p5--------------------------------------------
D----------------------7-----7p5\3~~------------------------------------
A-----------------------------------------------------------------------
E-----------------------------------------------------------------------


e---------8.--8.--8(10)---8~~---5----------8~----10p8-------------------
B---8(10)-------------------------8/10~---------------10p8----8h10~~----
G----------------------------------------------------------10-----------
D-----------------------------------------------------------------------
A-----------------------------------------------------------------------
E-----------------------------------------------------------------------


e----------5------------------------------------------------------------
B------------8p5--------------------------------------------------------
G---7(9)---------7p5---7p5-------------5.--5~~\-------------------------
D--------------------7-----7p5---5-7~-----------------------------------
A------------------------------7----------------------------------------
E-----------------------------------------------------------------------



e-------5---------------------------------------------------------------
B---------8p5-----------------------------------------------------------
G---0---------7p5---7p5-------------------------------------------------
D-----------------7-----7p5-7p5\3~--------------------------------------
A-----------------------------------------------------------------------
E-----------------------------------------------------------------------


e--------------------------------8.--10(12)---10-8-10p8.----------------
B-----------------------8---8/10----------------------------------------
G-------5---7p5---5-7/9---9---------------------------------------------
D---5/7---7-----7-------------------------------------------------------
A-----------------------------------------------------------------------
E-----------------------------------------------------------------------


e---15(17)------15-13---------------------------------------------------
B---------------------15(17)(15)p13----13-------------------------------
G-----------------------------------14----------------------------------
D-----------------------------------------------------------------------
A-----------------------------------------------------------------------
E-----------------------------------------------------------------------


e-----------------------------------------------------------------------
B---15(17)(15)p13----13--15(17)(15)p13----13--15(17)(15)p13----13-------
G-----------------14-------------------14-------------------14----------
D-----------------------------------------------------------------------
A-----------------------------------------------------------------------
E-----------------------------------------------------------------------


e-----------------------------------------------------------------------
B---15(17)(15)p13----13--15(17)(15)p13----13--15(17)(15)p13----13-------
G-----------------14-------------------14-------------------14----------
D-----------------------------------------------------------------------
A-----------------------------------------------------------------------
E-----------------------------------------------------------------------


e-----------------------------------------------------------------------
B---15(17)(15)p13----13--15(17)(15)p13----13--15(17)(15)p13----13-------
G-----------------14-------------------14-------------------14----------
D-----------------------------------------------------------------------
A-----------------------------------------------------------------------
E-----------------------------------------------------------------------


e-----------------------15(17)~~~~--------------------------------------
B---15(17)(15)p13----13-------------------------------------------------
G-----------------14----------------------------------------------------
D-----------------------------------------------------------------------
A-----------------------------------------------------------------------
E-----------------------------------------------------------------------


e---(17)(15)-12h15p12---------------------------------15----------------
B---------------------15p13----13h15p13----13-15(17)----(17)(15)p13-----
G---------------------------14----------14-------------------------14~--
D-----------------------------------------------------------------------
A-----------------------------------------------------------------------
E-----------------------------------------------------------------------


e-------------17--------------------------------------------------------
B----------20------20---17----------------------------------------------
G---19(21)----------------19(21)(19)p17-19-17----17-19(21)~~~~----------
D---------------------------------------------19------------------------
A-----------------------------------------------------------------------
E-----------------------------------------------------------------------


e-----------------------------------------------------------------------
B-----------------------------------------------------------------------
G---14(17)~~----14(17).--14.--12h14~~-p12-(14)~~~~----------------------
D-----------------------------------------------------------------------
A-----------------------------------------------------------------------
E-----------------------------------------------------------------------


e-----------------------------------------------------------------------
B-----------------------------------------------------------------------
G---9----(14)-----9-8-7\5-7p5-7(9)--(7)p5-------------------------------
D-----------------------------------------7~~~~~------------------------
A-----------------------------------------------------------------------
E-----------------------------------------------------------------------


e------20p17----20p17----20p17----20p17----20p17----20(22)~~~~----------
B---17------17-------17-------17-------17-------17----------------------
G-----------------------------------------------------------------------
D-----------------------------------------------------------------------
A-----------------------------------------------------------------------
E-----------------------------------------------------------------------


 ... and the improvisation part ...

e----------------------8h10-7~~~-\--------------------------------------
B----8---10---(12)~~----------------------------------------------------
G---9-------------------------------------------------------------------
D-----------------------------------------------------------------------
A-----------------------------------------------------------------------
E-----------------------------------------------------------------------


e---5.--7.--8--7h8p7p5-7~~----5.--7.--8--7h8p7p5-7~~--------------------
B-----------------------------------------------------------------------
G-----------------------------------------------------------------------
D-----------------------------------------------------------------------
A-----------------------------------------------------------------------
E-----------------------------------------------------------------------


e---5.--7.--8--7h8p7p5-/13---12---x-x-10/12\8---8/10\7------------------
B-----------------------------------------------------------------------
G-----------------------------------------------------------------------
D-----------------------------------------------------------------------
A-----------------------------------------------------------------------
E-----------------------------------------------------------------------


e------------5----------------------------------------------------------
B----------5---8p5---5-----5--------------------------------------------
G---7(9)-----------8---7h8---8p7p5-7p5-7(9)(7)p5---------------5--------
D------------------------------------------------7~--------------7~~----
A----------------------------------------------------x-x-5h6h7----------
E-----------------------------------------------------------------------



DOWNLOAD THE COMPLETE SOLO TAB HERE





  • click 'Buy Now' and send $6  (or 'Add to Cart' if you want to buy more tabs)
  • add your e-mail address
  • you will get a confirmation e-mail with your download links (in a few seconds)
  • download the full Guitar Pro 6 tab + GP5 + PDF
  • then start to learn the full song - that's all ...

IF YOU DIDN'T GET YOUR DOWNLOAD LINK, PLEASE CONTACT US HERE >>

SEND YOUR GUITAR TAB REQUEST HERE >>
MORE ON GUITAR TABS A-Z >>

Guitar Pro: a complete workshop for guitarists at an affordable price