20121219

STAIRWAY TO HEAVEN SOLO TAB (COVER BY THOMAS75S)


Led Zeppelin - Stairway To Heaven guitar solo cover played by Thomas75s.
He also plays an improvisation after the solo. See the TAB below.



STAIRWAY TO HEAVEN SOLO TAB

GP5 + GP6 + PDF >>

e------------5----------------------------------------------------------
B--------------8p5------------------------------------------------------
G---7(9)~~---------7p5---7p5--------------------------------------------
D----------------------7-----7p5\3~~------------------------------------
A-----------------------------------------------------------------------
E-----------------------------------------------------------------------


e---------8.--8.--8(10)---8~~---5----------8~----10p8-------------------
B---8(10)-------------------------8/10~---------------10p8----8h10~~----
G----------------------------------------------------------10-----------
D-----------------------------------------------------------------------
A-----------------------------------------------------------------------
E-----------------------------------------------------------------------


e----------5------------------------------------------------------------
B------------8p5--------------------------------------------------------
G---7(9)---------7p5---7p5-------------5.--5~~\-------------------------
D--------------------7-----7p5---5-7~-----------------------------------
A------------------------------7----------------------------------------
E-----------------------------------------------------------------------



e-------5---------------------------------------------------------------
B---------8p5-----------------------------------------------------------
G---0---------7p5---7p5-------------------------------------------------
D-----------------7-----7p5-7p5\3~--------------------------------------
A-----------------------------------------------------------------------
E-----------------------------------------------------------------------


e--------------------------------8.--10(12)---10-8-10p8.----------------
B-----------------------8---8/10----------------------------------------
G-------5---7p5---5-7/9---9---------------------------------------------
D---5/7---7-----7-------------------------------------------------------
A-----------------------------------------------------------------------
E-----------------------------------------------------------------------


e---15(17)------15-13---------------------------------------------------
B---------------------15(17)(15)p13----13-------------------------------
G-----------------------------------14----------------------------------
D-----------------------------------------------------------------------
A-----------------------------------------------------------------------
E-----------------------------------------------------------------------







DOWNLOAD THE COMPLETE SOLO TAB HERE



  • click 'Free Download'
  • add your e-mail address
  • you will get an e-mail with your download links (in a few seconds)
  • download the Guitar Pro 6 tab + GP5 + PDF for free
  • and that's all ...


Guitar Pro: a complete workshop for guitarists at an affordable price