20121209

STING SHAPE OF MY HEART TAB (ACOUSTIC)


Cool guitar cover of Sting - Shape Of My Heart played by "juansete91"
It's easier to play it with a nylon stringed guitar and sounds also cool.See the TAB under the video.



STING SHAPE OF MY HEART TAB


"A" version

e-----------------------------------------------------------------------
B-10---------10-----9---------9-----7---------7-----7-------6-----------
G--------6----------------6---------------4-----------------------------
D-----------------------------------------------------------------------
A------9--------9-------7-------7---5---5-------5---4---4---4-----------
E-----------------------------------------------------------------------


e-----------------------------------------------------------------------
B-10---------10-----9---------9-----7---------7-----7-------6-----------
G--------7----------------6---------------4-----------------------------
D-----------------------------------------------------------------------
A------9--------9-------7-------7---5---5-------5---4---4---4---0-------
E-----------------------------------------------------------------------


e-------------5---------------------------------------------------------
B-------7---------7-------0-------0-------------6-----------------------
G-----4-----4-------4----2----2-----------------------------------------
D-------------------------------------------6---------------------------
A-5---------------------0-----------0---4-----------4-------------------
E-----------------------------------------------------------------------



e---------------------------------2-------------------------------------
B-7---------7-----7-------6-------2-------------------------------------
G---------------------------------2-------------------------------------
D-------7-------------------------4-------------------------------------
A-5---5-------5---4---4---4---0---4-------------------------------------
E---------------------------------2-------------------------------------


"B" version

e-----------------------------------------------------------------------
B-10---------10-----9---------9-----7---------7-----7-------6-----------
G--------6----------------6---------------4-----------------------------
D-----------------------------------------------------------------------
A------9--------9-------7-------7---5---5-------5---4---4---4-----------
E-----------------------------------------------------------------------


e-----------------------------------------------------------------------
B-10---------10-----9---------9-----7---------7-----7-------6-----------
G--------7----------------6---------------4-----------------------------
D-----------------------------------------------------------------------
A------9--------9-------7-------7---5---5-------5---4---4---4---0-------
E-----------------------------------------------------------------------


e-----------------------------------------------------------------------
B-------7-----------------0-------0-------------6-----------------------
G-----4-----6---4~-\-----2----2-----------------------------------------
D-------------------------------------------6---------------------------
A-5---------------------0-----------0---4-----------4-------------------
E-----------------------------------------------------------------------


e---------------------------------2-------------------------------------
B-7---------7-----7-------6-------2-------------------------------------
G---------------------------------2-------------------------------------
D-------7-------------------------4-------------------------------------
A-5---5-------5---4---4---4---0---4-------------------------------------
E---------------------------------2-------------------------------------


2:10

e-2--------2-------2----------------------------------------------------
B-2--------3-------2----------------------------------------------------
G-2--------2-------4----------------------------------------------------
D-2--------0-------4----------------------------------------------------
A-4----------------4----------------------------------------------------
E-2--------2-------2----------------------------------------------------


BRIDGE

e-----------------------------------------------------------------------
B-----------------------------------------------------------------------
G-9---------9-----8---------8-----6---------6-----6-------5-------------
D-------6---------------6---------------4-------------------------------
A-----------------------------------------------------------------------
E-----9-------9-------7-------7-------5-------5---4---4---4-------------


e-----------------------------------------------------------------------
B-----------------------------------------------------------------------
G-9---------9-----8---------8-----6---------6-----6-------5-------------
D-------7---------------6---------------4-------------------------------
A-----------------------------------------------------------------------
E-----9-------9-------7-------7-------5-------5---4---4---4-------------


e-----------------------------------------------------------------------
B---------------5---------------------0---------------4-----------------
G-------6-----------6-------------1---------------5---------------------
D-----4-----4---------4-------2---------------6-------------------------
A-----------------------------------------------------------------------
E-5-----------------------0---------------4-----------------------------


e-5---------4---------4---------------5--------4--------4---------------
B-5---------4---------5---------------5--------4--------5---------------
G-6---------6---------6---------------6--------6--------6---------------
D-7---------6---------6---------------7--------6--------6---------------
A-7---------6---------4---------------7--------6--------4---------------
E-5---------4-------------------------5--------4------------------------


THE END

e-2--------2--------2---------2-----------------------------------------
B-2--------2--------3---------2-----------------------------------------
G-2--------2--------2---------2-----------------------------------------
D-4--------2--------0---------4-----------------------------------------
A-4--------4------------------4-----------------------------------------
E-2--------2--------2---------2-----------------------------------------


e-2--------2--------2---------2-----2-----------------------------------
B-2--------2--------3---------2-----2-----------------------------------
G-2--------2--------2---------4-----2-----------------------------------
D-4--------2--------0---------4-----4-----------------------------------
A-4--------4------------------4-----4-----------------------------------
E-2--------2--------2---------2-----2-----------------------------------