20121217

THE ROLLING STONES HONKY TONK WOMAN TAB (SOLO)

JeanGuitar78 plays a guitar cover of Honky Tonk Woman by The Rolling Stones.
His Fender Telecaster sounds awesome. He plays a cool improvisation solo in the middle of the video. See the TAB of that particular solo.

(However the song is played in open G tuning, the solo works in standard tuning too)


HONKY TONK WOMAN SOLO TAB


e-----------------------------------------------------------------------
B-----------------------------------------------------------------------
G-12---------14(16).-14(16)(14)p12----12--------------------------------
D---------14----------------------14.-----------------------------------
A-----------------------------------------------------------------------
E-----------------------------------------------------------------------


e-----------------------------------------------------------------------
B-----------------------------------------------------------------------
G------12.--12h14p12-----12----12---------14.--14-12--------------------
D-14----------------14------14------------------------------------------
A-----------------------------------------------------------------------
E-----------------------------------------------------------------------


e-----------------------------------------------------------------------
B-----------------------------------------------------------------------
G-------12.--14.--14(16)(14)-12------12-14-\---7-9(11)(9)-7---7-9-7-----
D-12h14---------------------------14------------------------9-----------
A-----------------------------------------------------------------------
E-----------------------------------------------------------------------



e-----------------------------------------------------------------------
B-------------------------------10(12)---(10)-10------------------------
G-9(11)---9-7---7-9/11---9-11-9------------------12---------------------
D-------------9---------------------------------------------------------
A-----------------------------------------------------------------------
E-----------------------------------------------------------------------


e-----------------------------------------------------------------------
B-----------------------------------------------------------------------
G-14(16)(14)-12----12-14-12.-12--------14(16)(14)-12------12~-----------
D---------------14------------------14-----------------14---------------
A-----------------------------------------------------------------------
E-----------------------------------------------------------------------


e-----------------------------------------------------------------------
B------5----------------------------------------------------------------
G-7(9)---7(9)(7)p5--5~--------------------------------------------------
D-----------------7------9\7-5-7-5~-------------------------------------
A-----------------------------------------------------------------------
E-----------------------------------------------------------------------


e-----------------------------------------------------------------------
B-----------------------------------------------------------------------
G-12-------12-11-14(16)(14)-12----14(16)(14)-12-12~~~\------------------
D----14-12---------------------14---------------------------------------
A-----------------------------------------------------------------------
E-----------------------------------------------------------------------



SEE ALSO