20121211

VAYA CON DIOS NAH NEH NAH TAB

Marjan Stoilov plays a cruel guitar cover of Vaya Con Dios - Nah Neh Nah.
He plays along with the original record, thats really hard. There is an intro solo, then some chords and finally the big solo.  If its too fast for you just use the TAB below.



VAYA CON DIOS NAH NEH NAH TAB


Intro

e-----------------------------------------------------------------------
B-----------------------------------------------------------------------
G-----------------------------------------------4-4/6-------------------
D-----------------4---4---4-3-4-6-7---7---7-6-7-------------------------
A-4---2-----------------------------------------------------------------
E---------5---4---------------------------------------------------------


e-----------------------------------------------------------------------
B-----------------------------------------------------------------------
G-7-6-5-6---------------------------------------------------------------
D---------7-6-4---7---6---6---5-6---------------------------------------
A-----------------------------------------------------------------------
E-----------------------------------------------------------------------


e-7-6-5-4---------------------------------------------------------------
B----------7-6----------------------------------------------------------
G---------------7-6--5-6------------------------------------------------
D-------------------------7-6--4-3---6----------------------------------
A-----------------------------------------------------------------------
E-----------------------------------------------------------------------



e-----------------------------------------------------------------------
B-----------------------------------------------------------------------
G-------------------------------4-4/6------5-6-7-6-5-6---4---4---3-4----
D-4---4---4-3-4-6-7---7---7-6-7-----------------------------------------
A-----------------------------------------------------------------------
E-----------------------------------------------------------------------


e-9-10-9--10-9----------------------------------------------------------
B--------------12-10--9-12-10-9-----------------------------------------
G--------------------------------11-10----------------------------------
D--------------------------------------12-11--10-11---------------------
A---------------------------------------------------12-11-9-------------
E-----------------------------------------------------------------------


Chords

e-9----------------------------9----------------------------------------
B-10---------------------------9----------------------------------------
G-11---------------------------10---------------------------------------
D-11---------------------------11---------------------------------------
A-9----------------------------11---------------------------------------
E------------------------------9----------------------------------------


e-9----------------------------9----------------------------------------
B-10---------------------------9----------------------------------------
G-11---------------------------10---------------------------------------
D-11---------------------------11---------------------------------------
A-9----------------------------11---------------------------------------
E------------------------------9----------------------------------------


e-7-----------------------------9-----9-----9----9----------------------
B-7-----------------------------9-----9-----9----9----------------------
G-8-----------------------------10----10----10---10---------------------
D-9-----------------------------11----11----11---11---------------------
A-9-----------------------------11----11----11---11---------------------
E-7-----------------------------9-----9-----9----9----------------------


e-9h10p9----------------------------------------------------------------
B--------12-10--9-12-10-9-----------------------------------------------
G--------------------------11-10----------------------------------------
D--------------------------------12-11--10-11---------------------------
A---------------------------------------------12-11-9-------------------
E-----------------------------------------------------------------------

again some chords and...

e-----------------------------------------2-3-4-5-----------------------
B---------------------------------2-3-4-5-------------------------------
G-------------------------2-3-4-5---------------------------------------
D-----------------2-3-4-5-----------------------------------------------
A---------2-3-4-5-------------------------------------------------------
E-2-3-4-5---------------------------------------------------------------


e-----------------------------------------------------------------------
B-9-10-12---6-7-9-------------------------------------------------------
G-------------------4-6-7-----------------------------------------------
D---------------------------6-7-9---------------------------------3-----
A-----------------------------------8-9-11------------4---5---6---------
E-----------------------------------------------------------------------

Solo

e-----------------------------------------------------------------------
B-----------------------------------------------------------------------
G-------------------------------4-4/6------5-6-7-6-5-6---4---4---3-4----
D-4---4---4-3-4-6-7---7---7-6-7-----------------------------------------
A-----------------------------------------------------------------------
E-----------------------------------------------------------------------


e---------9---10-9------------------------------------------------------
B--------9---------12-10-9---------9-----------9(10)---9(10)---9(10)----
G-4-5-6-10-----------------11-10----------------------------------------
D--------------------------------------11-------------------------------
A-----------------------------------------------------------------------
E-----------------------------------------------------------------------


e-----------------7-8~~-------------------------------------------------
B-7-6-7-9-10-9-10----------10---10--9---9---10-9------------------------
G-----------------------------------------------------------------------
D-----------------------------------------------------------------------
A-----------------------------------------------------------------------
E-----------------------------------------------------------------------


e-----------------------------------------------------------------------
B-6-7-9-----------------------------------------------------------------
G---------6-----6-7-----------------------------------------------------
D-------------9-------6---9-7-6---------6-------------------------------
A-------------------------------9-8-8-----------------------------------
E-------------------------------------------9---------------------------


e----------------------------10-9h10p9----------------------------------
B-----------------------9-12------------------12h13p12------9h10p9------
G--------------------10-------------------------------------------------
D---------------9-12----------------------------------------------------
A----------8-11---------------------------------------------------------
E-10-9-8-9--------------------------------------------------------------


e-----------------------------------------1-2-3-4-5-6-7-----------------
B---------------------------------1-2-3-4-------------------------------
G-------------------------1-2-3-4---------------------------------------
D-----------------1-2-3-4-----------------------------------------------
A---------1-2-3-4-------------------------------------------------------
E-1-2-3-4---------------------------------------------------------------


e-9-8-7-----------------------------------------------------------------
B-------10-7-------------------------------------------------10---9-----
G------------8----------------------------------------------------------
D--------------9-8-7---6---9---------6-------------------9-12-----------
A----------------------------------8----------------8-11----------------
E----------------------------------------9------7-9---------------------


e-9---------------------------------------------------------------------
B-10--------------------------------------------------------------------
G-11--------------------------------------------------------------------
D-11--------------------------------------------------------------------
A-9---------------------------------------------------------------------
E-----------------------------------------------------------------------