20130123

BLUES BROTHERS SWEET HOME CHICAGO TAB (SOLO)

Zeguitarman shows clearly how to play the guitar solo of Sweet Home Chicago
by The Blues Brothers. His Fender Stratocaster and his Fender Blues Deluxe work incredible cool. Many of you asked for tabs in the comments so here you are :D
The other video shows the second part of the solo.  TAB below.

SOLO 1


SOLO 2


BLUES BROTHERS SWEET HOME CHICAGO TAB

PDF >>

Part 1

e-/4---0----------------0-/3-------/2-------0---------------------------
B---------------------3-------------------------------------------------
G-/4----------------------/3-------/2-------1---------------------------
D-----------------------------------------------------------------------
A-----------------------------------------------------------------------
E-----------------------------------------------------------------------


e---3-5'--3'---9\8-7----------------------------------------------------
B-5------------9\8-7----------------------------------------------------
G--------------9\8-7----------------------------------------------------
D--------------8\7-6----------------------------------------------------
A--------------9\8-7----------------------------------------------------
E-----------------------------------------------------------------------


e-----------------------------------------------------------------------
B-/5---5---5------------------/5---5---5--------------------------------
G-/6---6---6---4(5)(4)-2------/6---6---6---4(5)(4)-2--------------------
D------------------------4---------------------------4------------------
A-----------------------------------------------------------------------
E-----------------------------------------------------------------------


e------0---0----0---0---0-----------------------------------------------
B-/3---3---3---/3---3---3-----------------------------------------------
G-/4---4---4---/4---4---4---2(3)(2)p0---2---0h1-------------------------
D-------------------------------------2---2-----2-----------------------
A-----------------------------------------------------------------------
E-----------------------------------------------------------------------


e--------7---------------------------------------7----------------------
B------7---10(12)~---/10---10------------------5---8'---5~~-------------
G-/8-----------------/11---11\9p7----------5/6--------------------------
D---------------------------------9-7~----------------------------------
A-----------------------------------------------------------------------
E-----------------------------------------------------------------------


e-----------0---0.---2.---3.---0.---/3-2.-------------------------------
B-5\3p0-----------------------------/3-2.-------------------------------
G-------0h1-----1.---2.---3.---1.---/3-2.-------------------------------
D-----------------------------------/2-1.-------------------------------
A-----------------------------------/3-2.-------------------------------
E-----------------------------------------------------------------------





Part 2

e---------12-------------------17(19)---(19)(17)-15-----------15'-------
B------12----15(17)~~-------------------------------17---17-------------
G-/-13------------------------------------------------------------------
D-----------------------------------------------------------------------
A-----------------------------------------------------------------------
E-----------------------------------------------------------------------


e----15-17-17p15--17p15-17p15-17p15--17-17~~-p15-----------15'----------
B-17---------------------------------------------17---17----------------
G-----------------------------------------------------------------------
D-----------------------------------------------------------------------
A-----------------------------------------------------------------------
E-----------------------------------------------------------------------


e----15-17h18p17p15-17h18p17p15-17h18p17p15-17h18p17p15-17h18p17p15-----
B-17--------------------------------------------------------------------
G-----------------------------------------------------------------------
D-----------------------------------------------------------------------
A-----------------------------------------------------------------------
E-----------------------------------------------------------------------


e-17h18p17p15-17h18p17p15-17h18p17p15-17h18p17p15-17h18p17p15-----------
B-----------------------------------------------------------------------
G-----------------------------------------------------------------------
D-----------------------------------------------------------------------
A-----------------------------------------------------------------------
E-----------------------------------------------------------------------


e-17h18p17p15-17h18p17p15--------------15.------------------------------
B-------------------------17---15-17------------------------------------
G-----------------------------------------------------------------------
D-----------------------------------------------------------------------
A-----------------------------------------------------------------------
E-----------------------------------------------------------------------


e-15(17)---15---12------------------------------------------------------
B-----------------------------------------------------------------------
G------------------15p14p12----14----12h13------------------------------
D---------------------------14----14-------14~~-------------------------
A-----------------------------------------------------------------------
E-----------------------------------------------------------------------


e-----------------------------------------------------------------------
B-------15-----------------------------15.---15\------------------------
G-/16------16\14p12----14---12-14/16---16.---16\------------------------
D-------------------14--------------------------------------------------
A-----------------------------------------------------------------------
E-----------------------------------------------------------------------