20130123

BON JOVI WANTED DEAD OR ALIVE TAB


Craig Hardie shows us how to play Wanted Dead Or Alive by Bon Jovi.
He plays a perfect cover with his 12 stringed guitar. (sounds good on 6 strings too)
TAB helps below.



BON JOVI WANTED DEAD OR ALIVE TAB

PDF >>

Intro

e---------------------------------------------------0-------------------
B----------------------------------------------------3------------------
G-----------------------------------------------------2-----------------
D----<7>--------------------------<12>-----------------0----------------
A--------------------------<12>-----------------------------------------
E-----------------------------------------------------------------------


e------13---------12---------10--------8-------5-------3-------1--------
B-----------------------------------------------------------------------
G---14----14---12----12---10----10---9---9---5---5---4---4-4\2----------
D-0----------0----------0----------0-------0-------0--------------------
A-----------------------------------------------------------------------
E-----------------------------------------------------------------------


e--------13---------12---------10--------8-------5-------3-------1------
B-----------------------------------------------------------------------
G-----14----14---12----12---10----10---9---9---5---5---4---4-4\2--------
D-0------------0----------0----------0-------0-------0------------------
A-----------------------------------------------------------------------
E-----------------------------------------------------------------------



e------------------------0--------------------------------0-------------
B--------------------------3---3----------------------------3---3-------
G------------------2---------2---2------------------2---------2---2-----
D---------0---3'---0---------------0-------0---3'---0-------------------
A-0-0-3'-----------------------------0-3'-------------------------------
E-----------------------------------------------------------------------


e------------------------0-----------------1-------2--------------------
B--------------------------3---3-----------1-------3--------------------
G------------------2---------2---2---------2-------2--------------------
D-0-------0---3'---0---------------0-------3-------0--------------------
A---0-3'-----------------------------0-3.--3----------------------------
E-----------------------------------------------------------------------


Verse

e-2-----2-0-2---2-3-2-0---0h2-2-2--------3---3-------3---3--------------
B-3-----3-3-3---3-3-3-3---3---3-3--------3---3-------3---3--------------
G-2-----2-2-2---2-2-2-2---2---2-2--0---0-0---0-------0---0--------------
D-0-----0-0-0---0-0-0-0---0---0-0--2---2-2---2-0-----0---0-----0--------
A----------------------------------3---3-------2-----------0h2----------
E----------------------------------------------3------------------------


e-------3---3-------3---3-----------1-------2---2---2-0h2-2-2-----------
B-------3---3-------3---3---------x-1---x-x-3---3---3-3---3-3-----------
G-0-----0---0-------0---0---------x-2---x-x-2---2---2-2---2-2-----------
D-2-----2---2-0-----0---0-----0---x-3---x-x-0---0---0-0---0-0-----------
A-3-----------2-----------0h2-----x-3---x-x-----------------------------
E-------------3---------------------------------------------------------


e-2---2-2-0-2---2h3p2-0---0h2-2-2------3---3-----3---3------------------
B-3---3-3-3-3---3---------3---3-3------3---3-----3---3------------------
G-2---2-2-2-2---2---------2---2-2--0---0---0-----0---0------------------
D-0---0-0-0-0---0---------0---0-0--2---2---2-0---0---0-----0------------
A----------------------------------3---------2---------0h2--------------
E--------------------------------------------3--------------------------


e-------3---3-------3---3-----------1-------2---2---2-0h2-2-2-----------
B-------3---3-------3---3---------x-1---x-x-3---3---3-3---3-3-----------
G-0-----0---0-------0---0---------x-2---x-x-2---2---2-2---2-2-----------
D-2-----2---2-0-----0---0-----0---x-3---x-x-0---0---0-0---0-0-----------
A-3-----------2-----------0h2-----x-3---x-x-----------------------------
E-------------3---------------------------------------------------------


Chorus

e-------3-----------3---3-----------1-------2---2---2-0-2-2-2-----------
B-------3-----------3---3---------x-1---x-x-3---3---3-3-3-3-3-----------
G-0-----0-----------0---0---------x-2---x-x-2---2---2-2-2-2-2-----------
D-2-----2-----0-----0---0-----0---x-3---x-x-0---0---0-0-0-0-0-----------
A-3-----------2-----------0h2-----x-3---x-x-----------------------------
E-------------3---------------------------------------------------------


e-------3-3-3-------3-3-3-----------------------------2-2-2-2-----------
B-------3-3-3-------3-3-3---------------------3-------3-3-3-3-----------
G-0-----0-0-0-------0-0-0---------------------2-------2-2-2-2-----------
D-2-----2-2-2-0-----0-0-0-----0-------0---3---0-------0-0-0-0-----------
A-3-------3-3-2-------2-2-0h2-----3'------------------------------------
E-------------3-------3-3-----------------------------------------------


e-------3-3-3-------3-3-3-----------------------------------------------
B-------3-3-3-------3-3-3---------------------3-------------------------
G-0-----0-0-0-------0-0-0---------------------2-------------------------
D-2-----2-2-2-0-----0-0-0-----0-------0---3---0-------------------------
A-3-------3-3-2-------2-2-0h2-----3'------------------------------------
E-------------3-------3-3-----------------------------------------------