20130104

DIRE STRAITS SULTANS OF SWING TAB (SOLOS)

Dire Straits Sultans of swing guitar solo played with a Fender Stratocaster.
This is probably the most popular Mark Knopfler guitar solo.This video shows only the first solo, but you'll find another video below that shows both solos a half note lower than the original. See the TAB of the 2 solos below.


 

DIRE STRAITS SULTANS OF SWING TAB SOLO 1                        Printable tab here

e-----------------------------------------------------------------------
H-----------------------------------------------------------------------
G-12(14)~-----12(14)-12(14)-12(14)------10h12p10------9h10p9------------
D-----------------------------------------------------------------------
A-----------------------------------------------------------------------
E-----------------------------------------------------------------------


e------------------------------10---12(13)------(12)-10-----------------
H-------------------------10-----------------------------10-------------
G--------------------10--------------------------------------10---------
D---------------11-----------------------------------------------12-----
A--------<12>-----------------------------------------------------------
E-<12>------------------------------------------------------------------


e-----------------------------------------------------------------------
H---10-13~------11h13p11-------9/10-------11.--------9/10---10~---------
G---------------------------------------x----------x--------------------
D-----------------------------------------------------------------------
A-----------------------------------------------------------------------
E-----------------------------------------------------------------------


e-----------------------13----------------------------------------------
H----------13.-------------13-------------------------------------------
G-12(14)-------12(14)---------(14)(12)-10---10~-------------------------
D-----------------------------------------------------------------------
A-----------------------------------------------------------------------
E-----------------------------------------------------------------------


e-/13-12.---------------------------------------------------------------
H----------13--------------13-13.---13~---------------------------------
G-------------12-14~----12----------------------------------------------
D-----------------------------------------------------------------------
A-----------------------------------------------------------------------
E-----------------------------------------------------------------------


e-----------------------------------------------------------------------
H-13(15)~----------(15)(13)p11-13(15)---13(15)~~~-----------------------
G-----------------------------------------------------------------------
D-----------------------------------------------------------------------
A-----------------------------------------------------------------------
E-----------------------------------------------------------------------


e----13p10----10--------------------------------------------------------
H-10-------10----13(15)---13-10-----------------3-6-3.------------------
G-------------------------------12-10.--------3-------------------------
D-------------------------------------------3---------------------------
A-----------------------------------------------------------------------
E-----------------------------------------------------------------------


e-----------------------------------------------------------------------
H---5---6--/8-6---5h6/8.----------3-6-3.--------------------------------
G--5----------------------------3-----------------5---7~---5------------
D-5---------------------------3----------------/5-----------------------
A-----------------------------------------------------------------------
E-----------------------------------------------------------------------


e-----------------------------------------------------------------------
H--------8--------------------------------------------------------------
G-7(9)-----(9)-(7)-5-7-7~~----------------------------------------------
D-----------------------------------------------------------------------
A-----------------------------------------------------------------------
E-----------------------------------------------------------------------



Joseph Suller plays both solos but a half note lower, thats why it sounds strange. Joseph has a band CHICANOS, check out his website and his bands website: www.chicanos.biz                   www.telefonica.net/web2/josesuller/


DIRE STRAITS SULTANS OF SWING TAB SOLO 2              

e-----------------------------------------------------------------------
H-8(10)------8~-----6-8p6--------6-8(10)---8~--5hp8--3h5p3--------------
G-------------------------7---------------------------------3h5p3-------
D-----------------------------------------------------------------------
A-----------------------------------------------------------------------
E-----------------------------------------------------------------------


e-----------------------------------------------------------------------
H-----------------------------x-x-10p8----8----------8-\----------------
G--------------------------------------10---10.--7----------------------
D-3h5p3-----------------------------------------------------------------
A--------3h5p3----------------------------------------------------------
E---------------8\------------------------------------------------------


e-------------8-----------------8-----------------8----------------8/---
H----8h10p8-----10p8---8h10p8-----10p8---8h10p8-----10p8---8h10p8-------
G-7h9-------9--------9--------9--------9--------9--------9--------9-----
D-----------------------------------------------------------------------
A-----------------------------------------------------------------------
E-----------------------------------------------------------------------


e-----------10----------------------------------------------------------
H--------10----13p10----10------------------------10--------------------
G-12(14)-------------12----12p10---------------10----12~~\--------------
D--------------------------------12.-----10h12--------------------------
A-----------------------------------------------------------------------
E-----------------------------------------------------------------------


e--------------------------------12--------------10.--------------------
H--8-10~------8-11~-----11(13)--------(13)(11)--------------------------
G-9----------9----------------------------------------------------------
D-----------------------------------------------------------------------
A-----------------------------------------------------------------------
E-----------------------------------------------------------------------


e-------13p10----10-13p10----10-13p10----10-13p10-----------------------
H-10----------10----------10----------10--------------------------------
G-----------------------------------------------------------------------
D-----------------------------------------------------------------------
A-----------------------------------------------------------------------
E-----------------------------------------------------------------------


e----10-13p10----10-13p10----10-13p10----10-13p10-----------------------
H-11----------10----------10----------10--------------------------------
G-----------------------------------------------------------------------
D-----------------------------------------------------------------------
A-----------------------------------------------------------------------
E-----------------------------------------------------------------------


e----12-15p12----12-15p12----12-15p12----12-15p12-----------------------
H-13----------13----------13----------13--------------------------------
G-----------------------------------------------------------------------
D-----------------------------------------------------------------------
A-----------------------------------------------------------------------
E-----------------------------------------------------------------------


e----12-15p12----12-15p12----12-15p12----12-15p12-----------------------
H-13----------13----------13----------13--------------------------------
G-----------------------------------------------------------------------
D-----------------------------------------------------------------------
A-----------------------------------------------------------------------
E-----------------------------------------------------------------------


e----10-13p10----10-13p10----10-13p10----10-13p10-----------------------
H-10----------10----------10----------10--------------------------------
G-----------------------------------------------------------------------
D-----------------------------------------------------------------------
A-----------------------------------------------------------------------
E-----------------------------------------------------------------------


e----10-13p10----10-13p10----10-13p10----10-13p10-----------------------
H-11----------10----------10----------10--------------------------------
G-----------------------------------------------------------------------
D-----------------------------------------------------------------------
A-----------------------------------------------------------------------
E-----------------------------------------------------------------------


e----12-15p12----12-15p12----12-15p12----12-17p12-----------------------
H-13----------13----------13----------13--------------------------------
G-----------------------------------------------------------------------
D-----------------------------------------------------------------------
A-----------------------------------------------------------------------
E-----------------------------------------------------------------------


e----12-15p12----12-15p12----12-15p12----12-15p12----12-15(17)----------
H-13----------13----------13----------13----------13--------------------
G-----------------------------------------------------------------------
D-----------------------------------------------------------------------
A-----------------------------------------------------------------------
E-----------------------------------------------------------------------


e-(17)-(17)(15)-13-15-13------------13-15(17)---15~---------------------
H------------------------15~~-------------------------------------------
G-----------------------------------------------------------------------
D-----------------------------------------------------------------------
A-----------------------------------------------------------------------
E-----------------------------------------------------------------------


e-12h15p12--------------------------------------------------------------
H------------13h15p13---------------------------------------------------
G-----------------------14h17p14----------------------------------------
D----------------------------------14h17p14-----------------------------
A---------------------------------------------15~~-\--------------------
E-----------------------------------------------------------------------




Are you satisfied with this guitar tab? Send your idea which song or guitar riff should be the next for tabbing by making a TAB REQUEST HERE
    
See more on GUITAR TABS A-Z