20130121

ERIC CLAPTON SUNSHINE OF YOUR LOVE TAB (ACOUSTIC)


Eric Clapton plays Sunshine of your love with a Martin Belezza Nera guitar.
See the TAB below.



ERIC CLAPTON SUNSHINE OF YOUR LOVE TAB

PDF >>

Intro

e-----------------------------------------------------------------------
B-/10-10--8-10.---------------------------------------------------------
G-/11-11--9-11.---------------------------------------------------------
D-/12-12-10-12.---------------------------------------------------------
A-----------------/12.--11.--10.------8'--------------------------------
E---------------------------------/10-----10----------------------------


e-----------------------------------------------------------------------
B-10.-10--8-10.--------------------12-----------------------------------
G-11.-11--9-11.--------------------12-10'-------------------------------
D-12.-12-10-12.--------------------12------12---------------------------
A-----------------/12.--11.--10.----------------------------------------
E-----------------------------------------------------------------------


Verse

e-----------------------------------------------------------------------
B--10-10--8-10.---------------------------------------------------------
G--11-11--9-11.---------------------------------  4 times  -------------
D--12-12-10-12.---------------------------------------------------------
A-----------------/12.--11.--10.------8'--------------------------------
E---------------------------------/10-----10----------------------------



e-----------------------------------------------------------------------
B-3-3-1-3.----------------------------3-3-1-3.--------------------------
G-4-4-2-4.----------------------------4-4-2-4.--------------------------
D-5-5-3-5.---0.-----------------------5-5-3-5.---0.---------------------
A----------------4.---3.-----1'-----------------------4.---3.-----------
E--------------------------3------3-----------------------------3-------


e-----------------------------------------------------------------------
B--10-10--8-10.---------------------------------------------------------
G--11-11--9-11.---------------------------------  2 times  -------------
D--12-12-10-12.---------------------------------------------------------
A-----------------/12.--11.--10.------8'--------------------------------
E---------------------------------/10-----10----------------------------


Chorus

e------------x---x----------x---3---3-----------------------------------
B-2---2-2.---x---x---5------x---3---3-----------------------------------
G-2---2-2.---x---x---5------x---4---4-----------------------------------
D-2---2-2.---x---x---5------x---5---5-----------------------------------
A-0---0-0.---x---x---3------x---5---5-----------------------------------
E------------x---x----------x---3---3-----------------------------------


e------------x---x----------x-3-3-3-3-----------------------------------
B-2---2-2.---x---x---5------x-3-3-3-3-----------------------------------
G-2---2-2.---x---x---5------x-4-4-4-4-----------------------------------
D-2---2-2.---x---x---5------x-5-5-5-5-----------------------------------
A-0---0-0.---x---x---3------x-5-5-5-5-----------------------------------
E------------x---x----------x-3-3-3-3-----------------------------------


e------------x---x----------x---3---3-----------------------------------
B-2---2-2.---x---x---5------x---3---3-----------------------------------
G-2---2-2.---x---x---5------x---4---4-----------------------------------
D-2---2-2.---x---x---5------x---5---5-----------------------------------
A-0---0-0.---x---x---3------x---5---5-----------------------------------
E------------x---x----------x---3---3-----------------------------------


e-----------------------------------------------------------------------
B-2---2---2---2-2-2---2-2-2-2-2-2---------------------------------------
G-2---2---2---2-2-2---2-2-2-2-2-2---------------------------------------
D-2---2---2---2-2-2---2-2-2-2-2-2---------------------------------------
A-0---0---0---0-0-0---0-0-0-0-0-0---------------------------------------
E-----------------------------------------------------------------------


The End

e-----------------------------------------------------------------------
B-10.-10--8-10.---------------------------------------------------------
G-11.-11--9-11.---------------------------------------------------------
D-12.-12-10-12.-----------------------10--------------------------------
A-----------------/12.--11.--10.-------8--------------------------------
E----------------------------------/10----------------------------------


e-----------------------------------------------------------------------
B-3---------3-------3-------3------------3------------------------------
G-2---------------0-------0---------0----2------------------------------
D-0-------------0-------0---------0------0------------------------------
A-0-----------3-------2---------1--------0------------------------------
E-----------------------------------------------------------------------