20130105

GARY MOORE STILL GOT THE BLUES TAB (SOLO)


Carl Brown's lesson how to play the solo parts of Still Got The Blues by Gary Moore.
TAB helps below. Check out Carl Brown's website here:



GARY MOORE STILL GOT THE BLUES SOLO TAB

PDF >>

Intro

e-----------------------------------------------------------------------
B----15-17-17(18)---------17(18)---17---15~-----------------------------
G-14--------------------------------------------------------------------
D-----------------------------------------------------------------------
A-----------------------------------------------------------------------
E-----------------------------------------------------------------------


e-----------------------------------------------------------------------
B-13-15-15(17)------------15(17)(15)---13~------------------------------
G-----------------------------------------------------------------------
D-----------------------------------------------------------------------
A-----------------------------------------------------------------------
E-----------------------------------------------------------------------


e-----------------------------------------------------------------------
B-10-12-13-13(15)---------13(15)(13)---12------------10-----------------
G---------------------------------------------------------12--12(14)----
D-----------------------------------------------------------------------
A-----------------------------------------------------------------------
E-----------------------------------------------------------------------



Solo

e-----------------------------------------------------------------------
B----15-17-17(18)---------17(18)---17---15~-----------------------------
G-14--------------------------------------------------------------------
D-----------------------------------------------------------------------
A-----------------------------------------------------------------------
E-----------------------------------------------------------------------


e-----------------------------------------------------------------------
B----13-15-15(17)------------15(17)(15)---13~---------------------------
G-12--------------------------------------------------------------------
D-----------------------------------------------------------------------
A-----------------------------------------------------------------------
E-----------------------------------------------------------------------


e-----------------------------------------------------------------------
B-10-12-13-13(15)---------13(15)(13)---12-------------------------------
G-----------------------------------------------------------------------
D-----------------------------------------------------------------------
A-----------------------------------------------------------------------
E-----------------------------------------------------------------------


e-----------------------------------------------------------------------
B-10------------10~~------12~~------12(13)~~~---------------------------
G------12(14)-----------------------------------------------------------
D-----------------------------------------------------------------------
A-----------------------------------------------------------------------
E-----------------------------------------------------------------------


e------------------------15---------------------------------------------
B----15-17-17(18)-----------15(17)-15~~---------------------------------
G-14--------------------------------------------------------------------
D-----------------------------------------------------------------------
A-----------------------------------------------------------------------
E-----------------------------------------------------------------------


e------------------------13---------------------------------------------
B----13-15-15(17)-----------15(17)-15-13~-------------------------------
G-12--------------------------------------------------------------------
D-----------------------------------------------------------------------
A-----------------------------------------------------------------------
E-----------------------------------------------------------------------


e----------------------------------------------------------10-----------
B-10-12-13-13(15)-------13(15)(13)p10-13(15)-13(15)~~~~-------13p10.----
G-----------------------------------------------------------------------
D-----------------------------------------------------------------------
A-----------------------------------------------------------------------
E-----------------------------------------------------------------------


e-20(22)------20'-------17----------------------------------------------
B--------------------------20-17--------17------------------------------
G--------------------------------19(21)----19(21)(19)p17----19----------
D--------------------------------------------------------19----19-------
A-----------------------------------------------------------------------
E-----------------------------------------------------------------------


e--------------17-------------------------------------------------------
B-----------17----17-20p17----17----------------------------------------
G-17-19(21)----------------19----19(21)(19)p17-19----17-19-19(21)~~~----
D-------------------------------------------------19--------------------
A-----------------------------------------------------------------------
E-----------------------------------------------------------------------