20130129

GUNS N ROSES KNOCKIN ON HEAVENS DOOR TAB - SOLOS

Davicarturani's cover of the 2 solos of Knockin' On Heavens Door by Guns'N'Roses.
He plays both solos fast with a backing track and then slower.
Note that Guns N Roses songs are usually in half-step down tuning, but this video is played in standard  tuning. TAB helps below.


GUNS N ROSES KNOCKIN ON HEAVENS DOOR TAB

PDF >>

Solo 1

e-----------------------------------------------------------------------
B------------------------15---------------------------------------------
G--12.--(16)(14)p12-14~-------(16)(14)-12-12~~--------------------------
D-----------------------------------------------------------------------
A-----------------------------------------------------------------------
E-----------------------------------------------------------------------


e-----------------------------------------------------------------------
B---------15(17)-15~~----13\12-13-13(15)------13p12-13---12-------------
G------12---------------------------------------------------------------
D--/14------------------------------------------------------14----------
A-----------------------------------------------------------------------
E-----------------------------------------------------------------------


e--------15-------------15-17(19)-17------17(19).--17(19).--15----------
B--12-13----13-12---/17-------------------------------------------------
G-----------------------------------------------------------------------
D-----------------------------------------------------------------------
A-----------------------------------------------------------------------
E-----------------------------------------------------------------------



e--20(22)---20-19-20---19-20(22)---20p19-20---20------------------------
B------------------------------------------------17~~~-\----------------
G-----------------------------------------------------------------------
D-----------------------------------------------------------------------
A-----------------------------------------------------------------------
E-----------------------------------------------------------------------


e-------------------------------------------15--------------------------
B--15(17)(15)(17)(15)---------------------------------------------------
G---------------------14(16)(14)(16)(14)-12-----------------------------
D-----------------------------------------------------------------------
A-----------------------------------------------------------------------
E-----------------------------------------------------------------------


Solo 2

e------------------15-14(15)---------14(15)------14---------------------
B---------------15------------------------------------------------------
G--12-12----/16---------------------------------------------------------
D--------12-------------------------------------------------------------
A-----------------------------------------------------------------------
E-----------------------------------------------------------------------


e--14(15)(14)-12-15p12----------15--------15----------------------------
B----------------------15(17)------15(17)----15(17)---------------------
G-----------------------------------------------------------------------
D-----------------------------------------------------------------------
A-----------------------------------------------------------------------
E-----------------------------------------------------------------------


e-------------------------15-------------------15--15-------------------
B--15(17)(15)-13h15-----------------------------------------------------
G-------------------14(16)---14(16)(14)-12-14~--------14(16)(14)-12-----
D-----------------------------------------------------------------------
A-----------------------------------------------------------------------
E-----------------------------------------------------------------------


e---------15----17(19)-17-15-17p15--20-19-20-20(22)--20-19-20-20(22)----
B------15----15---------------------------------------------------------
G--/16------------------------------------------------------------------
D-----------------------------------------------------------------------
A-----------------------------------------------------------------------
E-----------------------------------------------------------------------


e--20-19-20-22(24)---22(24)---22-----------22---------------------------
B--------------------------------20-22(24)----(24)(22)-20---------------
G-----------------------------------------------------------------------
D-----------------------------------------------------------------------
A-----------------------------------------------------------------------
E-----------------------------------------------------------------------


e-----------------------------------------------------------------------
B--22.--(24)(22)-20-22-20.--19(20)-------20(19)-19~~--19(20)(19)-17-----
G-----------------------------------------------------------------------
D-----------------------------------------------------------------------
A-----------------------------------------------------------------------
E-----------------------------------------------------------------------


e-----------------------------------------------------------------------
B---19p17-------------20--------20--------------------------------------
G---------19(21)---------19(21)----19(21)--19(21)(19)-17h19-16\---------
D-----------------------------------------------------------------------
A-----------------------------------------------------------------------
E-----------------------------------------------------------------------


e-----------------------------------------------------------------------
B-----------------------------------------------------------------------
G--/12~--11~~----11h12p11-----------------------------------------------
D-------------------------14-14~~----------12~~----------10\9-----------
A-------------------------------------------------------------10~~------
E-----------------------------------------------------------------------