20130106

GUNS N ROSES NOVEMBER RAIN SOLO TAB (COVER BY THOMAS75S)

Thomas75s plays the legendary guitar solo in November Rain by Guns N Roses.
He is using a Gibson Les Paul with neck pick-ups.
See the TAB under the video.


NOVEMBER RAIN SOLO TAB

PDF >>

e--------------------------------8--------------------------------------
B-x-x-8(10)--------(10)(8)(10)-----(10)------(8)p6-8(10)(8)(10)---------
G-----------------------------------------------------------------------
D-----------------------------------------------------------------------
A-----------------------------------------------------------------------
E-----------------------------------------------------------------------


e---------------8---------------------------/8~~------------------------
B-(10)(8)(10)-----(10)(8)-5(6)(5)~~-------------------------------------
G-----------------------------------------------------------------------
D-----------------------------------------------------------------------
A-----------------------------------------------------------------------
E-----------------------------------------------------------------------


e-----------------------------------------------------------------------
B-5(6)(5)(6)-------(5)~~--------------8---------------------------------
G---------------------------7p5-7/9-----9\7------5----------------------
D-----------------------------------------------------------------------
A-----------------------------------------------------------------------
E-----------------------------------------------------------------------




e----------------------------8------------------------------------------
B-8(10)--------(10)(8)(10)-----(10)------(8)p6-8(10)(8)(10)-------------
G-----------------------------------------------------------------------
D-----------------------------------------------------------------------
A-----------------------------------------------------------------------
E-----------------------------------------------------------------------


e---------------8-8(10)------(8)-10(12)~~~~-----8h10p8----8-------------
B-(10)(8)(10)------------------------------------------10---/13~~-------
G-----------------------------------------------------------------------
D-----------------------------------------------------------------------
A-----------------------------------------------------------------------
E-----------------------------------------------------------------------


e-13p12----13p12----13(15)---13~~-----------12-13---12h13p12------------
B-------13-------13----------------------15------------------15~~-------
G-----------------------------------------------------------------------
D-----------------------------------------------------------------------
A-----------------------------------------------------------------------
E-----------------------------------------------------------------------


e-----------------------------------------------19(20)------------------
B-15-17-18(20)------------18-17-17(18)---(17)---------------------------
G-----------------------------------------------------------------------
D-----------------------------------------------------------------------
A-----------------------------------------------------------------------
E-----------------------------------------------------------------------


e-19-19-19p17-17-17\15-15-15\13-13-13p12.-----12---h13------12h13~~-----
B------------------------------------------------------15---------------
G-----------------------------------------------------------------------
D-----------------------------------------------------------------------
A-----------------------------------------------------------------------
E-----------------------------------------------------------------------


e-12--13-12-h13p12--------12----10-h12p10-----10------------------------
B-----------------15--13-----13-----------13-----12h13------------------
G-----------------------------------------------------------------------
D-----------------------------------------------------------------------
A-----------------------------------------------------------------------
E-----------------------------------------------------------------------


e-----------------------------------------------------------------------
B-12-h13p12---------12----10------------------------------/13~~---------
G-----------14--12-----12-----10--12p10\9~~-------12p10p9---------------
D-----------------------------------------------------------------------
A-----------------------------------------------------------------------
E-----------------------------------------------------------------------


e-------------------------------------------------------15--------------
B--------------/13~~------------------------15(17)---------(17)(15)-----
G-10-h12p10\9-------------------10-h12p10\9-----------------------------
D-----------------------------------------------------------------------
A-----------------------------------------------------------------------
E-----------------------------------------------------------------------


e-----------------------------------------------------------------------
B-13~~~~------(15)~~~~~~~-------------------------6--p5-----------------
G-----------------------------------------5h7p5-----------5-------------
D-----------------------------------------------7-------------7~~-------
A-----------------------------------------------------------------------
E-----------------------------------------------------------------------


e-----------------------------------------------------------------------
B----------------6(8)-------------6-5-6--h5-----------------------------
G-5/7-----------------------------------------5-------------------------
D-----7--\5---------------------------------------7~~-------------------
A-----------------------------------------------------------------------
E-----------------------------------------------------------------------


e-----------------------------------------------------------------------
B--------------------------6--p5----------------------------------------
G-5/7~~--------------5-7p5---------5------------------------------------
D------------------7-------------------7~~~-----------------------------
A-----------------------------------------------------------------------
E-----------------------------------------------------------------------
                   x x

e-----------------------------------------------------------------------
B-----------------------------------------------------------------------
G-/7---/9---10---/12---\-------------------------------------9h10h12----
D---------------------------------------------7h9h10-9h10h12------------
A--------------------------------5h7h8-7h8h10---------------------------
E--------------------------5h7h8----------------------------------------


e----------10h12p10-13~~---------------------20-------------------------
B-10h12h13--------------------------20(22)------20--------(22)----------
G-----------------------------------------------------------------------
D-----------------------------------------------------------------------
A-----------------------------------------------------------------------
E-----------------------------------------------------------------------


e-20--------------19(20)-----~~~~~-\\-----------------------------------
B----18---17----------------------------18(19)------(18)---(19)~~~------
G-----------------------------------------------------------------------
D-----------------------------------------------------------------------
A-----------------------------------------------------------------------
E-----------------------------------------------------------------------


e-------------17--------------------------------------------------------
B----17-18-20----18-20-17-18-20-17(18)(17)------15(17)(15)--------------
G-19--------------------------------------------------------------------
D-----------------------------------------------------------------------
A-----------------------------------------------------------------------
E-----------------------------------------------------------------------


e-------------15-------------------15-------------------15(17)---15-----
B-15p13----13----13.--13~~------13----13.--13~~------13-----------------
G-------14-------------------14-------------------14--------------------
D-----------------------------------------------------------------------
A-----------------------------------------------------------------------
E-----------------------------------------------------------------------


e-13--h15p13\12--13-12--h13p12-----12-------------15--------------------
B------------------------------15-----15(17)---------15~~~---13~~~~-----
G-----------------------------------------------------------------------
D-----------------------------------------------------------------------
A-----------------------------------------------------------------------
E-----------------------------------------------------------------------