20130103

JIMI HENDRIX LITTLE WING SOLO TAB (COVER BY KIKO PERES)

Kiko Peres shows us how to play the guitar solo of Little Wing by Jimi Hendrix.
Thanks Kiko Peres!
TAB helps below.


JIMI HENDRIX LITTLE WING SOLO TAB


eb----------------------------------------------------------------------
Bb-15(17)--------15(17)---15---12---12h15-12--------15(17)(15)----------
Gb-------------------------------------------------------------12-------
Db----------------------------------------------------------------------
Ab----------------------------------------------------------------------
Eb----------------------------------------------------------------------


eb----------------------------------------------------------------------
Bb----------15----------------------------------------------------------
Gb-14(16)--------14(16)-14------14(16)(14)-12-14(16)(14)(16)~~----------
Db----------------------------------------------------------------------
Ab----------------------------------------------------------------------
Eb----------------------------------------------------------------------


eb----------------------------------------------------------------------
Bb----------------------------------------------------------------------
Gb-14(16)(14)---12-----------14(16)--12-14----12-14-12h14---------------
Db-----------------14----------------------14---------------------------
Ab----------------------------------------------------------------------
Eb----------------------------------------------------------------------



eb----------------------------------------------------------------------Bb-----------------------------------------13p12-13p12-13p12------------
Gb-12h14------14/16------12------14(16)----------------------12.--------
Db----------------------------------------------------------------------
Ab----------------------------------------------------------------------
Eb----------------------------------------------------------------------


eb---------------------------------------15-15----------15--------------
Bb-15(17)------15(17)(15)-12.------------15-15-12-------15--------------
Gb------------------------------14(16)---------14(16)-------------------
Db----------------------------------------------------------------------
Ab----------------------------------------------------------------------
Eb----------------------------------------------------------------------


eb--------13-13----------13---------------------------------------------
Bb--------13-13----------13------8-------------8------------------------
Gb-12(14)-------12(14)-----------7---h9p7------7---h9p7-----------------
Db----------------------------------------10------------10---10/12------
Ab----------------------------------------------------------------------
Eb----------------------------------------------------------------------


eb----------------------------------------------------------------------
Bb-10---10---10------10---10--------10----------------------------------
Gb-9----11---11h12---11---9---------9-----------------------------------
Db-----------------------------12---------------------------------------
Ab----------------------------------------------------------------------
Eb----------------------------------------------------------------------