20130112

KID ROCK ALL SUMMER LONG TAB (GUITAR SOLO COVER)


Cool cover of Kid Rock - All Summer Long guitar solo.
TAB helps below.



KID ROCK ALL SUMMER LONG TAB

PDF >>

e-13(15)--------13.-10h13p10----10----------------------------------
B----------------------------13----13(15)~~-------------------------
G-------------------------------------------------------------------
D-------------------------------------------------------------------
A-------------------------------------------------------------------
E-------------------------------------------------------------------


e-10----------------------------------------------------------------
B----13p10-------13--------13--------13-----------------------------
G---------12(14)----12(14)----12(14)----12(14)(12)p10----10'--------
D-----------------------------------------------------12----12-10---
A-------------------------------------------------------------------
E-------------------------------------------------------------------


e-------------------------------------------------------------------
B-------------------------------------------------------------------
G-12(14)(12)p10--10.---12(14)(12)p10--10.---------------------------
D--------------12-------------------12------------------------------
A-------------------------------------------------------------------
E-------------------------------------------------------------------




e-------------------------------------------------------------------
B-------------------------------------------------------------------
G-12(14)(12)p10--10'------------------------------------------------
D--------------12-----12-10-----------------------------------------
A---------------------------12-11-10-8~~-\--------------------------
E-------------------------------------------------------------------


e-------------------------------------------------------------------
B-------------------------------------------------------------------
G----------10~~------12'---10-12----10'-----------------------------
D----------10~~------------------12-------12-10---------------------
A-10h11h12----------------------------------------------------------
E-------------------------------------------------------------------


e------------------------------10-----------------------------------
B---------------------------10----13(15)~~--------------------------
G----------10~~------12(14)-----------------------------------------
D----------10~~-----------------------------------------------------
A-10h11h12----------------------------------------------------------
E-------------------------------------------------------------------


e-10----13-------15-------13-------15-------13----------------------
B----13----13h15----13h15----13h15----13h15----13h15----------------
G-------------------------------------------------------------------
D-------------------------------------------------------------------
A-------------------------------------------------------------------
E-------------------------------------------------------------------


e-15-13----13'------------------------------------------------------
B-------15-------15-13----------------------------------------------
G----------------------14-13-12-10~~\-------------------------------
D-------------------------------------------------------------------
A-------------------------------------------------------------------
E-------------------------------------------------------------------


Bridge

e-------------------------------------------------------------------
B-------------------------------------------------------------------
G-14(16).--14~~----14.--12~~----12---12.--14(16).--12~~-------------
D-------------------------------------------------------------------
A-------------------------------------------------------------------
E-------------------------------------------------------------------


e-------------------------------------------------------------------
B-------------------------------------------------------------------
G------------12-------14(16).--14~~----14.--12~~--------------------
D-12---12h14--------------------------------------------------------
A-------------------------------------------------------------------
E-------------------------------------------------------------------


e-------------------------------------------------------------------
B----------15----------15---15(17)---15-----------------------------
G-14(16)------14(16)----------------------(16)(14)---12-------------
D-------------------------------------------------------------------
A-------------------------------------------------------------------
E-------------------------------------------------------------------