20130123

PAPA ROACH LAST RESORT TAB

Norabasketball plays Papa Roach - Last Resort with the original album version in the background. She makes a few mistakes but it's a cool cover.
Use dropped D tuning. TAB helps below.



PAPA ROACH LAST RESORT TAB

PDF >>

Intro

e-----------------------------------------------------------------------
B-----------------------------------------------------------------------
G-----------------------------------------------------------------------
D-9-9--------7-7--------5-5--------4-4---7-7----------------------------
A-7-7--------5-5--------3-3--------2-2---5-5----------------------------
D-9-9--------7-7--------5-5--------4-4---7-7----------------------------


e-----------------------------------------------------------------------
B-----------------------------------------------------------------------
G-----------------------------------------------------------------------
D-----------9--------------------9--------------------------------------
A-7-10-9-10---10-9-10--5-10-9-10---10-9-10------------------------------
D-----------------------------------------------------------------------


e-----------------------------------------------------------------------
B-----------------------------------------------------------------------
G-----------------------------------------------------------------------
D------------9--------------------9-------------------------------------
A----10-9-10---10-9-10----10-9-10---10-9-10-----------------------------
D-10--------------------9-----------------------------------------------




e-----------------------------------------------------------------------
B-----------------------------------------------------------------------
G-----------------------------------------------------------------------
D-----------9--------------------9--------------------------------------
A-7-10-9-10---10-9-10--5-10-9-10---10-9-10------------------------------
D-----------------------------------------------------------------------


e-----------------------------------------------------------------------
B-----------------------------------------------------------------------
G-----------------------------------------------------------------------
D------------9--------------------9-------------------------------------
A----10-9-10---10-9-10----10-9-10---10-9-10-----------------------------
D-10--------------------9-----------------------------------------------


Verse

e-----------------------------------------------------------------------
B-----------------------------------------------------------------------
G-----------------------------------------------------------------------
D-----------9--------------------9--------------------------------------
A-7-10-9-10---10-9-10--5-10-9-10---10-9-10------------------------------
D-----------------------------------------------------------------------
  x x  x x  x x  x x   x x  x x  x x  x x

e-----------------------------------------------------------------------
B-----------------------------------------------------------------------
G-----------------------------------------------------------------------
D------------9--------------------9-------------------------------------
A----10-9-10---10-9-10----10-9-10---10-9-10-----------------------------
D-10--------------------9-----------------------------------------------
  x  x  x x  x x  x x   x x  x x  x x  x x

e-----------------------------------------------------------------------
B-----------------------------------------------------------------------
G-----------------------------------------------------------------------
D-----------9--------------------9--------------------------------------
A-7-10-9-10---10-9-10--5-10-9-10---10-9-10------------------------------
D-----------------------------------------------------------------------
  x x  x x  x x  x x   x x  x x  x x  x x

e-----------------------------------------------------------------------
B-----------------------------------------------------------------------
G-----------------------------------------------------------------------
D------------9--------------------9-------------------------------------
A----10-9-10---10-9-10----10-9-10---10-9-10-----------------------------
D-10--------------------9-----------------------------------------------
  x  x  x x  x x  x x   x x  x x  x x  x x

e-----------------------------------------------------------------------
B-----------------------------------------------------------------------
G-----------------------------------------------------------------------
D-----------9--------------------9--------------------------------------
A-7-10-9-10---10-9-10--5-10-9-10---10-9-10------------------------------
D-----------------------------------------------------------------------
  x x  x x  x x  x x   x x  x x  x x  x x

e-----------------------------------------------------------------------
B-----------------------------------------------------------------------
G-----------------------------------------------------------------------
D------------9--------------------9-------------------------------------
A----10-9-10---10-9-10----10-9-10---10-9-10-----------------------------
D-10--------------------9-----------------------------------------------
  x  x  x x  x x  x x   x x  x x  x x  x x

e-----------------------------------------------------------------------
B-----------------------------------------------------------------------
G-----------------------------------------------------------------------
D-----------9--------------------9--------------------------------------
A-7-10-9-10---10-9-10--5-10-9-10---10-9-10------------------------------
D-----------------------------------------------------------------------
  x x  x x  x x  x x   x x  x x  x x  x x

e-----------------------------------------------------------------------
B-----------------------------------------------------------------------
G-----------------------------------------------------------------------
D------------9----------9-9-9-9-12-12-12-12-----------------------------
A----10-9-10---10-9-10--9-9-9-9-12-12-12-12-----------------------------
D-10--------------------9-9-9-9-12-12-12-12-----------------------------
  x  x  x x  x x  x x 


Chorus

e-----------------------------------------------------------------------
B-----------------------------------------------------------------------
G-9-9-9-9-9-9-9-9--5-5-5-5-5-5-5-5--11-11-11-11-12-12-12-12-------------
D-9-9-9-9-9-9-9-9--5-5-5-5-5-5-5-5--------------------------------------
A-7-7-7-7-7-7-7-7--3-3-3-3-3-3-3-3--9--9--9--9--10-10-10-10-------------
D-----------------------------------------------------------------------


e-----------------------------------------------------------------------
B-----------------------------------------------------------------------
G-14-14-14-14-11-11-11-11-----------------------------------------------
D-----------------------------------------------------------------------
A-12-12-12-12-9--9--9--9------------------------------------------------
D-----------------------------------------------------------------------


e-----------------------------------------------------------------------
B-----------------------------------------------------------------------
G-9-9-9-9-9-9-9-9--5-5-5-5-5-5-5-5--11-11-11-11-12-12-12-12-------------
D-9-9-9-9-9-9-9-9--5-5-5-5-5-5-5-5--------------------------------------
A-7-7-7-7-7-7-7-7--3-3-3-3-3-3-3-3--9--9--9--9--10-10-10-10-------------
D-----------------------------------------------------------------------


e-----------------------------------------------------------------------
B-----------------------------------------------------------------------
G-14-14-14-14-11-11-11-11-----------------------------------------------
D-----------------------------------------------------------------------
A-12-12-12-12-9--9--9--9------------------------------------------------
D-----------------------------------------------------------------------


Verse 2

e-----------------------------------------------------------------------
B-----------------------------------------------------------------------
G-----------------------------------------------------------------------
D-----------9--------------------9--------------------------------------
A-7-10-9-10---10-9-10--5-10-9-10---10-9-10------------------------------
D-----------------------------------------------------------------------


e-----------------------------------------------------------------------
B-----------------------------------------------------------------------
G-----------------------------------------------------------------------
D------------9--------------------9-------------------------------------
A----10-9-10---10-9-10----10-9-10---10-9-10-----------------------------
D-10--------------------9-----------------------------------------------


e-----------------------------------------------------------------------
B-----------------------------------------------------------------------
G-----------------------------------------------------------------------
D-----------9--------------------9--------------------------------------
A-7-10-9-10---10-9-10--5-10-9-10---10-9-10------------------------------
D-----------------------------------------------------------------------
  x x  x x  x x  x x   x x  x x  x x  x x

e-----------------------------------------------------------------------
B-----------------------------------------------------------------------
G-----------------------------------------------------------------------
D------------9--------------------9-------------------------------------
A----10-9-10---10-9-10----10-9-10---10-9-10-----------------------------
D-10--------------------9-----------------------------------------------
  x  x  x x  x x  x x   x x  x x  x x  x x

e-----------------------------------------------------------------------
B-----------------------------------------------------------------------
G-----------------------------------------------------------------------
D-----------9--------------------9--------------------------------------
A-7-10-9-10---10-9-10--5-10-9-10---10-9-10------------------------------
D-----------------------------------------------------------------------
  x x  x x  x x  x x   x x  x x  x x  x x

e-----------------------------------------------------------------------
B-----------------------------------------------------------------------
G-----------------------------------------------------------------------
D------------9--------------------9-------------------------------------
A----10-9-10---10-9-10----10-9-10---10-9-10-----------------------------
D-10--------------------9-----------------------------------------------
  x  x  x x  x x  x x   x x  x x  x x  x x

e-----------------------------------------------------------------------
B-----------------------------------------------------------------------
G-----------------------------------------------------------------------
D-----------9--------------------9--------------------------------------
A-7-10-9-10---10-9-10--5-10-9-10---10-9-10------------------------------
D-----------------------------------------------------------------------
  x x  x x  x x  x x   x x  x x  x x  x x

e-----------------------------------------------------------------------
B-----------------------------------------------------------------------
G-----------------------------------------------------------------------
D------------9--------------------9-------------------------------------
A----10-9-10---10-9-10----10-9-10---10-9-10-----------------------------
D-10--------------------9-----------------------------------------------
  x  x  x x  x x  x x   x x  x x  x x  x x

e-----------------------------------------------------------------------
B-----------------------------------------------------------------------
G-----------------------------------------------------------------------
D-----------9--------------------9--------------------------------------
A-7-10-9-10---10-9-10--5-10-9-10---10-9-10------------------------------
D-----------------------------------------------------------------------
  x x  x x  x x  x x   x x  x x  x x  x x

e-----------------------------------------------------------------------
B-----------------------------------------------------------------------
G-----------------------------------------------------------------------
D------------9----------9-9-9-9-12-12-12-12-----------------------------
A----10-9-10---10-9-10--9-9-9-9-12-12-12-12-----------------------------
D-10--------------------9-9-9-9-12-12-12-12-----------------------------
  x  x  x x  x x  x x 


Chorus 2

e-----------------------------------------------------------------------
B-----------------------------------------------------------------------
G-9-9-9-9-9-9-9-9--5-5-5-5-5-5-5-5--11-11-11-11-12-12-12-12-------------
D-9-9-9-9-9-9-9-9--5-5-5-5-5-5-5-5--------------------------------------
A-7-7-7-7-7-7-7-7--3-3-3-3-3-3-3-3--9--9--9--9--10-10-10-10-------------
D-----------------------------------------------------------------------


e-----------------------------------------------------------------------
B-----------------------------------------------------------------------
G-14-14-14-14-11-11-11-11-----------------------------------------------
D-----------------------------------------------------------------------
A-12-12-12-12-9--9--9--9------------------------------------------------
D-----------------------------------------------------------------------


e-----------------------------------------------------------------------
B-----------------------------------------------------------------------
G-9-9-9-9-9-9-9-9--5-5-5-5-5-5-5-5--11-11-11-11-12-12-12-12-------------
D-9-9-9-9-9-9-9-9--5-5-5-5-5-5-5-5--------------------------------------
A-7-7-7-7-7-7-7-7--3-3-3-3-3-3-3-3--9--9--9--9--10-10-10-10-------------
D-----------------------------------------------------------------------


e-----------------------------------------------------------------------
B-----------------------------------------------------------------------
G-14-14-14-14-11-11-11-11-----------------------------------------------
D-----------------------------------------------------------------------
A-12-12-12-12-9--9--9--9------------------------------------------------
D-----------------------------------------------------------------------


Bridge (1:32)

e-----------------------------------------------------------------------
B-----------------------------------------------------------------------
G-9-9-9-9-9-9-9-9--5-5-5-5-5-5-5-5--------------------------------------
D-9-9-9-9-9-9-9-9--5-5-5-5-5-5-5-5--5-5-5-5-5-5-5-5--9-9-9-9-9-9-9-9----
A-7-7-7-7-7-7-7-7--3-3-3-3-3-3-3-3--5-5-5-5-5-5-5-5--9-9-9-9-9-9-9-9----
D-----------------------------------5-5-5-5-5-5-5-5--9-9-9-9-9-9-9-9----


e-----------------------------------------------------------------------
B-----------------------------------------------------------------------
G-9-9-9-9-9-9-9-9--5-5-5-5-5-5-5-5--------------------------------------
D-9-9-9-9-9-9-9-9--5-5-5-5-5-5-5-5--5-5-5-5-5-5-5-5--9-9-9-9-9-9-9-9----
A-7-7-7-7-7-7-7-7--3-3-3-3-3-3-3-3--5-5-5-5-5-5-5-5--9-9-9-9-9-9-9-9----
D-----------------------------------5-5-5-5-5-5-5-5--9-9-9-9-9-9-9-9----


e-----------------------------------------------------------------------
B-----------------------------------------------------------------------
G-x-9-9-9-9-9-9-9-------------------x-5-5-5-5-5-5-5---------------------
D-x-9-9-9-9-9-9-9--x-5-5-5-5-5-5-5--x-5-5-5-5-5-5-5--x-9-9-9-9-9-9-9----
A-x-7-7-7-7-7-7-7--x-5-5-5-5-5-5-5--x-3-3-3-3-3-3-3--x-9-9-9-9-9-9-9----
D------------------x-5-5-5-5-5-5-5-------------------x-9-9-9-9-9-9-9----


e-----------------------------------------------------------------------
B-----------------------------------------------------------------------
G-x-9-9-9-9-9-9-9-------------------x-5-5-5-5-5-5-5---------------------
D-x-9-9-9-9-9-9-9--x-5-5-5-5-5-5-5--x-5-5-5-5-5-5-5--x-9-9-9-9-9-9-9----
A-x-7-7-7-7-7-7-7--x-5-5-5-5-5-5-5--x-3-3-3-3-3-3-3--x-9-9-9-9-9-9-9----
D------------------x-5-5-5-5-5-5-5-------------------x-9-9-9-9-9-9-9----


Intro again

e-----------------------------------------------------------------------
B-----------------------------------------------------------------------
G-----------------------------------------------------------------------
D-9-9--------7-7--------5-5--------4-4---7-7----------------------------
A-7-7--------5-5--------3-3--------2-2---5-5----------------------------
D-9-9--------7-7--------5-5--------4-4---7-7----------------------------


e-----------------------------------------------------------------------
B-----------------------------------------------------------------------
G-----------------------------------------------------------------------
D-9-9--------7-7--------5-5--------4-4---7-7----------------------------
A-7-7--------5-5--------3-3--------2-2---5-5----------------------------
D-9-9--------7-7--------5-5--------4-4---7-7----------------------------


e-----------------------------------------------------------------------
B-----------------------------------------------------------------------
G-----------------------------------------------------------------------
D-9-9--------7-7--------5-5--------4-4---7-7----------------------------
A-7-7--------5-5--------3-3--------2-2---5-5----------------------------
D-9-9--------7-7--------5-5--------4-4---7-7----------------------------


e-----------------------------------------------------------------------
B-----------------------------------------------------------------------
G-----------------------------------------------------------------------
D-9-9--------7-7--------5-5--------4-4---7-7----------------------------
A-7-7--------5-5--------3-3--------2-2---5-5----------------------------
D-9-9--------7-7--------5-5--------4-4---7-7----------------------------


e-----------------------------------------------------------------------
B-----------------------------------------------------------------------
G-----------------------------------------------------------------------
D-----------9--------------------9--------------------------------------
A-7-10-9-10---10-9-10--5-10-9-10---10-9-10------------------------------
D-----------------------------------------------------------------------


e-----------------------------------------------------------------------
B-----------------------------------------------------------------------
G-----------------------------------------------------------------------
D------------9--------------------9-------------------------------------
A----10-9-10---10-9-10----10-9-10---10-9-10-----------------------------
D-10--------------------9-----------------------------------------------


e-----------------------------------------------------------------------
B-----------------------------------------------------------------------
G-----------------------------------------------------------------------
D-----------9--------------------9--------------------------------------
A-7-10-9-10---10-9-10--5-10-9-10---10-9-10------------------------------
D-----------------------------------------------------------------------
 

e-----------------------------------------------------------------------
B-----------------------------------------------------------------------
G-----------------------------------------------------------------------
D------------9----------9-9-9-9-12-12-12-12-----------------------------
A----10-9-10---10-9-10--9-9-9-9-12-12-12-12-----------------------------
D-10--------------------9-9-9-9-12-12-12-12-----------------------------


Chorus (last)

e-----------------------------------------------------------------------
B-----------------------------------------------------------------------
G-9-9-9-9-9-9-9-9--5-5-5-5-5-5-5-5--11-11-11-11-12-12-12-12-------------
D-9-9-9-9-9-9-9-9--5-5-5-5-5-5-5-5--------------------------------------
A-7-7-7-7-7-7-7-7--3-3-3-3-3-3-3-3--9--9--9--9--10-10-10-10-------------
D-----------------------------------------------------------------------


e-----------------------------------------------------------------------
B-----------------------------------------------------------------------
G-14-14-14-14-11-11-11-11-----------------------------------------------
D-----------------------------------------------------------------------
A-12-12-12-12-9--9--9--9------------------------------------------------
D-----------------------------------------------------------------------


e-----------------------------------------------------------------------
B-----------------------------------------------------------------------
G-9-9-9-9-9-9-9-9--5-5-5-5-5-5-5-5--11-11-11-11-12-12-12-12-------------
D-9-9-9-9-9-9-9-9--5-5-5-5-5-5-5-5--------------------------------------
A-7-7-7-7-7-7-7-7--3-3-3-3-3-3-3-3--9--9--9--9--10-10-10-10-------------
D-----------------------------------------------------------------------


e-----------------------------------------------------------------------
B-----------------------------------------------------------------------
G-14-14-14-14-11-11-11-11-----------------------------------------------
D-----------------------------------------------------------------------
A-12-12-12-12-9--9--9--9------------------------------------------------
D-----------------------------------------------------------------------


e-----------------------------------------------------------------------
B-----------------------------------------------------------------------
G-9-9-9-9-9-9-9-9--5-5-5-5-5-5-5-5--------------------------------------
D-9-9-9-9-9-9-9-9--5-5-5-5-5-5-5-5--5-5-5-5-5-5-5-5--9-9-9-9-9-9-9-9----
A-7-7-7-7-7-7-7-7--3-3-3-3-3-3-3-3--5-5-5-5-5-5-5-5--9-9-9-9-9-9-9-9----
D-----------------------------------5-5-5-5-5-5-5-5--9-9-9-9-9-9-9-9----


e-----------------------------------------------------------------------
B-----------------------------------------------------------------------
G-9-9-9-9-9-9-9-9--5-5-5-5-5-5-5-5--------------------------------------
D-9-9-9-9-9-9-9-9--5-5-5-5-5-5-5-5--5-5-5-5-5-5-5-5--9-9-9-9-9-9-9-9----
A-7-7-7-7-7-7-7-7--3-3-3-3-3-3-3-3--5-5-5-5-5-5-5-5--9-9-9-9-9-9-9-9----
D-----------------------------------5-5-5-5-5-5-5-5--9-9-9-9-9-9-9-9----


e-----------------------------------------------------------------------
B-----------------------------------------------------------------------
G-9-9-9-9-9-9-9-9--5-5-5-5-5-5-5-5--11-11-11-11-12-12-12-12-------------
D-9-9-9-9-9-9-9-9--5-5-5-5-5-5-5-5--------------------------------------
A-7-7-7-7-7-7-7-7--3-3-3-3-3-3-3-3--9--9--9--9--10-10-10-10-------------
D-----------------------------------------------------------------------


e-----------------------------------------------------------------------
B-----------------------------------------------------------------------
G-14-14-14-14-11-11-11-11-----------------------------------------------
D-----------------------------------------------------------------------
A-12-12-12-12-9--9--9--9------------------------------------------------
D-----------------------------------------------------------------------


e-----------------------------------------------------------------------
B-----------------------------------------------------------------------
G-9-9-9-9-9-9-9-9--5-5-5-5-5-5-5-5--11-11-11-11-12-12-12-12-------------
D-9-9-9-9-9-9-9-9--5-5-5-5-5-5-5-5--------------------------------------
A-7-7-7-7-7-7-7-7--3-3-3-3-3-3-3-3--9--9--9--9--10-10-10-10-------------
D-----------------------------------------------------------------------


e-----------------------------------------------------------------------
B-----------------------------------------------------------------------
G-14-14-14-14-12-14-12--------------------------------------------------
D-----------------------------------------------------------------------
A-12-12-12-12-10-12-10--------------------------------------------------
D-----------------------------------------------------------------------


e-----------------------------------------------------------------------
B-----------------------------------------------------------------------
G-9-9-9-9-9-9-9-9--5-5-5-5-5-5-5-5--------------------------------------
D-9-9-9-9-9-9-9-9--5-5-5-5-5-5-5-5--------------------------------------
A-7-7-7-7-7-7-7-7--3-3-3-3-3-3-3-3--------------------------------------
D------------------------------------0-0-0-0-0-0-0-0--------------------
                                     x x x x x x x x

e-----------------------------------------------------------------------
B-----------------------------------------------------------------------
G-9-9-9-9-9-9-9-9--5-5-5-5-5-5-5-5--11-11-11-11-12-12-12-12-------------
D-9-9-9-9-9-9-9-9--5-5-5-5-5-5-5-5--------------------------------------
A-7-7-7-7-7-7-7-7--3-3-3-3-3-3-3-3--9--9--9--9--10-10-10-10-------------
D-----------------------------------------------------------------------


e-----------------------------------------------------------------------
B-----------------------------------------------------------------------
G-14-14-14-14-11-11-11-11-----------------------------------------------
D-----------------------------------------------------------------------
A-12-12-12-12-9--9--9--9------------------------------------------------
D-----------------------------------------------------------------------


e-----------------------------------------------------------------------
B-----------------------------------------------------------------------
G-9-9-9-9-9-9-9-9--5-5-5-5-5-5-5-5--11-11-11-11-12-12-12-12-------------
D-9-9-9-9-9-9-9-9--5-5-5-5-5-5-5-5--------------------------------------
A-7-7-7-7-7-7-7-7--3-3-3-3-3-3-3-3--9--9--9--9--10-10-10-10-------------
D-----------------------------------------------------------------------


e-----------------------------------------------------------------------
B-----------------------------------------------------------------------
G-14-14-14-14-11-11-11-11-----------------------------------------------
D-----------------------------------------------------------------------
A-12-12-12-12-9--9--9--9------------------------------------------------
D-----------------------------------------------------------------------


e-----------------------------------------------------------------------
B-----------------------------------------------------------------------
G-9-9-9-9-9-9-9-9--5-5-5-5-5-5-5-5--11-11-11-11-12-12-12-12-------------
D-9-9-9-9-9-9-9-9--5-5-5-5-5-5-5-5--------------------------------------
A-7-7-7-7-7-7-7-7--3-3-3-3-3-3-3-3--9--9--9--9--10-10-10-10-------------
D-----------------------------------------------------------------------


e-----------------------------------------------------------------------
B-----------------------------------------------------------------------
G-14-14-14-14-11-11-11-11-----------------------------------------------
D-----------------------------------------------------------------------
A-12-12-12-12-9--9--9--9------------------------------------------------
D-----------------------------------------------------------------------


e-----------------------------------------------------------------------
B-----------------------------------------------------------------------
G-9-9-9-9-9-9-9-9--9-9-9-9--9\------------------------------------------
D-9-9-9-9-9-9-9-9--9-9-9-9--9\------------------------------------------
A-7-7-7-7-7-7-7-7--7-7-7-7--7\------------------------------------------
D-----------------------------------------------------------------------