20130112

PINK FLOYD THE WALL TAB (SOLO)

Joseph Suller plays a perfect cover of the guitar solo of Pink Floyd - The Wall.
He is using an American Standard Fender Stratocaster, that works really cool.
Joseph plays in half-step down tuning. TAB helps below.



PINK FLOYD THE WALL SOLO TAB

PDF >> 

eb-----------------------10.--------------------------------------------
Bb-13-10----10--------10------13(15)-----------10-10-x-10\--------------
Gb-------12----12(14)--------------------------10-10-x-10\--------------
Db---------------------------------------------10-10-x-10\--------------
Ab----------------------------------------------------------------------
Eb----------------------------------------------------------------------


eb----------------------------------------------------------------------
Bb-13(15)--15(17)~~~----------------13p10-------------------------------
Gb----------------------------------------12.--12(14)~~-----------------
Db----------------------------------------------------------------------
Ab----------------------------------------------------------------------
Eb----------------------------------------------------------------------


eb----------------------------------------------------------------------
Bb-6p5---5-----8-------10\--------------------10-10------10-10----------
Gb-----7---5/7---------10\--------------------10-10------10-10----------
Db----------------12--------------x-x-10h12~----x---12~----x---12~------
Ab----------------------------------------------------------------------
Eb----------------------------------------------------------------------



eb---------------------------------12-13(15)------------13.--13\--------
Bb-10-12p10--/-\------------------13------------------------------------
Gb-10-12p10--/-\-----------------14-------------------------------------
Db---x------------------------------------------------------------------
Ab----------------------------------------------------------------------
Eb----------------------------------------------------------------------


eb----------------------------------------------------------------------
Bb-13(15)--15(17)~~~------15(18)---15~~~~~-\----------------------------
Gb----------------------------------------------------------------------
Db----------------------------------------------------------------------
Ab----------------------------------------------------------------------
Eb----------------------------------------------------------------------


eb-----------10---------------------------------------------------------
Bb--------10----13p10----------------------------------------12p10------
Gb-12(14)-------------12.--(14)(12)p10.--12p10------10-------12p10------
Db---------------------------------------------12.-----12~--------------
Ab----------------------------------------------------------------------
Eb----------------------------------------------------------------------


eb----------------------------------------------------------------------
Bb----------------------------------------------------------------------
Gb----------------------------------------------------------------------
Db-10-------------------------------------------------------------------
Ab----12\10---10p8-10p8-----------8-------------------------------------
Eb----------------------10.--10-----10.--10\----------------------------


eb----------------------------------------------------------------------
Bb------------5h6p5------------------------6--(8).----------------------
Gb----5---7---------7-7p5-----5(7)-7.--7p5------------------------------
Db-/7---------------------7.--------------------------------------------
Ab----------------------------------------------------------------------
Eb----------------------------------------------------------------------


eb----------------------------------------------------------------------
Bb-13(15)~~----13(15)--15(17)~~~------15(18)---15~~~~~-\----------------
Gb----------------------------------------------------------------------
Db----------------------------------------------------------------------
Ab----------------------------------------------------------------------
Eb----------------------------------------------------------------------


eb----15(17)~~-------------13------------------13---12.--15(17)~~~~-----
Bb-13-------------------------15~~--------------------------------------
Gb----------------------14---------------/14------x---------------------
Db----------------------------------------------------------------------
Ab----------------------------------------------------------------------
Eb----------------------------------------------------------------------


eb-------------------15(17)(15)---------18(20)--(20)-(20)-(20)-(20)-----
Bb-15(17)~~~~~------------------15~~------------------------------------
Gb----------------------------------------------------------------------
Db----------------------------------------------------------------------
Ab----------------------------------------------------------------------
Eb----------------------------------------------------------------------


eb-20(22)~~~~-------------20p17.------------20-20p17---\----------------
Bb----------------------------------------------------------------------
Gb----------------------------------------------------------------------
Db----------------------------------------------------------------------
Ab----------------------------------------------------------------------
Eb----------------------------------------------------------------------


eb----------------------------------------------------------------------
Bb----------------------------------------------------------------------
Gb-----10-----10-----10'-----10-----------------------------------------
Db-x--------x----x--------------12~~~-----------------------------------
Ab----------------------------------------------------------------------
Eb----------------------------------------------------------------------


eb---------8---x-5.---x-7.---x-7\5---5----------------------------------
Bb---------8---x-6.---x-8.---x-8\6---6----------------------------------
Gb-x-x-7/9--------------------------------------------------------------
Db----------------------------------------------------------------------
Ab----------------------------------------------------------------------
Eb----------------------------------------------------------------------


eb----------------------------------------------------------------------
Bb----12p10-------------------------------------------------------------
Gb----12p10------10~~---------------------------------------------------
Db-12-------12.----------12\--------------------------------------------
Ab-----------------------------------12\10---8.--10(12)(10)-8-----------
Eb------------------------------------------------------------10--\-----