20130118

THE SHADOWS THEME FOR YOUNG LOVERS TAB


The Shadows - Theme For Young Lovers played by Gerard Gabriel.
All you need is a nice Fender Stratocaster, some reverb and a tremolo bar.
Download the Guitar Pro 6, GP5 and PDF files below.



THE SHADOWS THEME FOR YOUNG LOVERS TAB

GP5 + GP6 + PDF >>

Part 1

e-----------------------------------------------------------------------
B---15-14-12-14-12-------7-------7-------15-14-12-14-12------7----------
G--------------------------9-7-9-------------------------------9-7--9---
D-----------------------------------------------------------------------
A-----------------------------------------------------------------------
E-----------------------------------------------------------------------


Part 2

e-----------------------------------------------------------------------
B-----------------------------------------------------------------------
G-------------------------------------------------------------2---------
D-----------0-------2---4---2-0-----------0---0-------2---4-----4-------
A---0---2-----------------------------2---------------------------------
E-----------------------------------------------------------------------


e-----------------------------------------------------------------------
B-----------------------------------------------------------------------
G-----------2-----------2---4---2---------------------------------------
D---0---4-----------4---------------4---0---2---------------------------
A-----------------------------------------------------------------------
E-----------------------------------------------------------------------



e-----------------------------------------------------------------------
B-----------2---3-------2---3---2---------------------------------------
G---2---4-------------------------4------2---4---2----------------------
D--------------------------------------------------------4---0---2-0----
A-----------------------------------------------------------------------
E-----------------------------------------------------------------------


e-----------------------------------------------------------------------
B-----------------------------------------------------------------------
G-----------------------------------------------------------------------
D---0---2/4-4-------2---4---2---0-------------------0---0---------------
A-----------------------------------2---0---2---------------------------
E-----------------------------------------------------------------------


Part 2 (Again)


Part 3

e-----------------------------------------------------------------------
B-----------------------------------------------------------------------
G-----------2-------0-----------------------4-------2-------------------
D-----------4-------2-----------------------5-------4-------------------
A---0-----0-------------------------0-----0-----------------------------
E-----------------------------------------------------------------------


e-----------------------------------------------------------------------
B-----------------------------------------------------------------------
G-----------6-------4---------------6-----6-----------------------------
D-----------7-------5---------------7-----7-----------------------------
A---0-----0---------------------------------9---------------------------
E-----------------------------------------------------------------------




DOWNLOAD THE COMPLETE TAB HERE



  • click 'Free Download'
  • add your e-mail address
  • you will get an e-mail with your download links (in a few seconds)
  • download the Guitar Pro 6 tab + GP5 + PDF for free
  • and that's all ...


Guitar Pro: a complete workshop for guitarists at an affordable price