20130124

SIMPLE PLAN SUMMER PARADISE TAB

Markus Sanda plays the real chords of Simple Plan - Summer Paradise. You can hear the original song while he is playing this cover. Thanks for sharing it.
Do you like this F# chords before the chorus?
TAB and Strumming Pattern helps below. 


SIMPLE PLAN SUMMER PARADISE TAB


Intro/ Verse

  D       A        Bm      G

e---------5--------7-------3--------------------------------------------
B-7-------5--------7-------3--------------------------------------------
G-7-------6--------7-------4--------------------------------------------
D-7-------7--------9-------5--------------------------------------------
A-5-------7--------9-------5--------------------------------------------
E---------5--------7-------3--------------------------------------------


Bridge

  Bm      G       D       A       Bm      G       F#

e-2-------3---------------5-------2-------3-------2---------------------
B-3-------3-------7-------5-------3-------3-------2---------------------
G-4-------4-------7-------6-------4-------4-------3---------------------
D-4-------5-------7-------7-------4-------5-------4---------------------
A-2-------5-------5-------7-------2-------5-------4---------------------
E---------3---------------5---------------3-------2---------------------




Chorus

  G       D       A       Bm  A   G       D       A

e-3---------------5-------7---5---3---------------5---------------------
B-3-------7-------5-------7---5---3-------7-------5---------------------
G-4-------7-------6-------7---6---4-------7-------6---------------------
D-5-------7-------7-------9---7---5-------7-------7---------------------
A-5-------5-------7-------9---7---5-------5-------7---------------------
E-3---------------5-------7---5---3---------------5---------------------

  G       D       A       Bm  A   G       A    

e-3---------------5-------7---5---3-------5-----------------------------
B-3-------7-------5-------7---5---3-------5-----------------------------
G-4-------7-------6-------7---6---4-------6-----------------------------
D-5-------7-------7-------9---7---5-------7-----------------------------
A-5-------5-------7-------9---7---5-------7-----------------------------
E-3---------------5-------7---5---3-------5-----------------------------


...after chorus...

  G       D       A               G       D       A

e-3---------------5---------------3---------------5---------------------
B-3-------7-------5---------------3-------7-------5---------------------
G-4-------7-------6---------------4-------7-------6---------------------
D-5-------7-------7---------------5-------7-------7---------------------
A-5-------5-------7---------------5-------5-------7---------------------
E-3---------------5---------------3---------------5---------------------



Strumming pattern: 

Verse:    down(x) down  down(x) down down(x) down  down(x) up-down      4x

Bridge    down(x) down  down(x) down down(x) down  down(x) down 
               down(x) down  down(x) down down........

Chorus   down(x) down  down(x) down down(x) down  down(x) down 
               down(x) down  down(x) down down                down

After ch. down(x) down  down(x) down down(x) down  down(x) down 
               down(x) down  down(x) down down