20130119

SPOTNICKS JOHNNY GUITAR TAB (COVER BY BURNS ERNST)

BurnsErnst plays a perfect cover of the legendary Johnny Guitar by The Spotnicks.
He is using an old Fender Stratocaster that sounds cool.
Use the tremolo bar to make it more exciting. TAB below.



SPOTNICKS JOHNNY GUITAR TAB

PDF >>

Intro

e-------------0--------0-1/3------1-1-3-1h3p1-0-------------------------
B-----0-0-1-1--------3--------------------------------------------------
G-2-2-------------------------------------------------------------------
D-----------------------------------------------------------------------
A-----------------------------------------------------------------------
E-----------------------------------------------------------------------


e-------------0--------0-1/5------3\---0--------------------------------
B-----0-0-1-1--------3--------------------------------------------------
G-2-2-------------------------------------------------------------------
D-----------------------------------------------------------------------
A-----------------------------------------------------------------------
E-----------------------------------------------------------------------


e-0-5-7-8--8-8-8--8--------8-7-5-8--8-8-8--8--------8-7-5-8\---0--------
B-----------------------------------------------------------------------
G-----------------------------------------------------------------------
D-----------------------------------------------------------------------
A-----------------------------------------------------------------------
E-----------------------------------------------------------------------



e-8--7--5--8~------8--7--5--7~-------7--5--4--5~------------------------
B-----------------------------------------------------------------------
G-----------------------------------------------------------------------
D-----------------------------------------------------------------------
A-----------------------------------------------------------------------
E-----------------------------------------------------------------------


e-5-5h7-5-3--------3-3h5-3-1--------1-3-5-3-1-0----12---12---12---------
B-----------------------------------------------------------------------
G-----------------------------------------------------------------------
D-----------------------------------------------------------------------
A-----------------------------------------------------------------------
E-----------------------------------------------------------------------


 and... Part 1

e-------------0--------0-1/3------1-1-3-1h3p1-0-------------------------
B-----0-0-1-1--------3--------------------------------------------------
G-2-2-------------------------------------------------------------------
D-----------------------------------------------------------------------
A-----------------------------------------------------------------------
E-----------------------------------------------------------------------


e-------------0--------0-1-1/5------3\---0------------------------------
B-----0-0-1-1--------3--------------------------------------------------
G-2-2-------------------------------------------------------------------
D-----------------------------------------------------------------------
A-----------------------------------------------------------------------
E-----------------------------------------------------------------------


e-0-5-7-8--8-8-8--8--------8-7-5-8--8-8-8--8--------8-7-5-8\---0--------
B-----------------------------------------------------------------------
G-----------------------------------------------------------------------
D-----------------------------------------------------------------------
A-----------------------------------------------------------------------
E-----------------------------------------------------------------------


e-8--7--5--8~------8--7--5--7~-------7--5--4--5~------------------------
B-----------------------------------------------------------------------
G-----------------------------------------------------------------------
D-----------------------------------------------------------------------
A-----------------------------------------------------------------------
E-----------------------------------------------------------------------


e-5-5h7-5-3--------3-3h5-3-1--------1-3-5-3-1-0----12---12---12-12------
B-----------------------------------------------------------------------
G-----------------------------------------------------------------------
D-----------------------------------------------------------------------
A-----------------------------------------------------------------------
E-----------------------------------------------------------------------


Part 2

e----------12----------12-13-15---------13-13-15-13h15p13-12------------
B----12-13----------15--------------------------------------------------
G-14--------------------------------------------------------------------
D-----------------------------------------------------------------------
A-----------------------------------------------------------------------
E-----------------------------------------------------------------------


e-------------------12-----------12-13-17--------15\---12---------------
B-------12-12-13-13-----------15----------------------------------------
G-14-14-----------------------------------------------------------------
D-----------------------------------------------------------------------
A-----------------------------------------------------------------------
E-----------------------------------------------------------------------


e-------5-5---------7-5-7-5---5---------7-5-----------------------------
B-----5-----5------6--------6-----6---6-------6-------------------------
G---5---------5---7-------------7---7-------7---------------------------
D-7---------------------------------------------------------------------
A-----------------------------------------------------------------------
E-----------------------------------------------------------------------


e-----5-----5-----5----------------------1--------------0---------------
B---5-----5-----5-----5-----5---5-------1----1---------0----0-----------
G-7-----5-----7-----5---5-7---5--------2-------2.-----1-------1.--------
D-----------------------------------3-3------------2-2------------------
A-----------------------------------------------------------------------
E-----------------------------------------------------------------------


e-------5---------------3---------------1---1-1h3p1-0-------------------
B-----5-----5---------3-----3---------1---------------------------------
G---5---------5.----4---------4.----2-----------------------------------
D-7---------------5---------------3-------------------------------------
A-----------------------------------------------------------------------
E-----------------------------------------------------------------------


Part 3

e-------0----------0-1/3----------1-1-3-1h3p1-0-------------------------
B---0-1----------3------------------------------------------------------
G-2---------------------------------------------------------------------
D-----------------------------------------------------------------------
A-----------------------------------------------------------------------
E-----------------------------------------------------------------------


e-------------0--------0-1/5------3\---0--------------------------------
B-----0-0-1-1--------3--------------------------------------------------
G-2-2-------------------------------------------------------------------
D-----------------------------------------------------------------------
A-----------------------------------------------------------------------
E-----------------------------------------------------------------------


e-0-5-7-8--8-8-8--8--------8-7-5-8--8-8-8--8--------8-7-5-8\---0--------
B-----------------------------------------------------------------------
G-----------------------------------------------------------------------
D-----------------------------------------------------------------------
A-----------------------------------------------------------------------
E-----------------------------------------------------------------------


e-8--7--5--8~------8--7--5--7~-------7--5--4--5~------------------------
B-----------------------------------------------------------------------
G-----------------------------------------------------------------------
D-----------------------------------------------------------------------
A-----------------------------------------------------------------------
E-----------------------------------------------------------------------


e-8--7--5--8~------8--7--5--7~-------7--5--4--5~------------------------
B-----------------------------------------------------------------------
G-----------------------------------------------------------------------
D-----------------------------------------------------------------------
A-----------------------------------------------------------------------
E-----------------------------------------------------------------------


e-8--7--5--8~---------------8--7--5--7~----------------7--5--4--5~------
B-----------------------------------------------------------------------
G-----------------------------------------------------------------------
D-----------------------------------------------------------------------
A-----------------------------------------------------------------------
E-----------------------------------------------------------------------