20130108

UNDER THE BRIDGE TAB

John Frusciante shows us the legendary guitar parts of Under The Bridge.
He plays each part fast and slow. In the second half of the video he tells that he was inspired by Jimi Hendrix. Thanks for sharing it, John! TAB helps below.
Note, that its NOT note for note the original album version but John plays it himself!!!


RED HOT CHILI PEPPERS UNDER THE BRIDGE TAB

PDF >>

Intro

e-----------------------------------------------------------------------
B-3-------------3-------------------------------------------------------
G---------2---------2---------------------------3-----------------------
D-----4-------4---------------------------4---------4-----4-2-----------
A-5-----------------------4-2---------4-------4---------------5-2-------
E-----------------------------5-4-2-------------------------------------


e-----------------------------------------------------------------------
B---------------3---------3/5-5.----------------------------------------
G---------2---------2-----2/4-4.----------------3-----------------------
D-----4-------4-----------4/6-6.----------4---------4-----4-2-----------
A-4h5---5-----------------------------4-------4---------------5-2-------
E---------------------------------2-------------------------------------


e-----------------------------------------------------------------------
B---------------3-------------------------------------------------------
G---------2---------2---------------------------3-----------------------
D-----4-------4---------------------------4---------4-----4-2-----------
A-4h5---5-----------------4-2---------4-------4---------------5-2-------
E-----------------------------5-4-2---------------2---------------------




e-------------------------2/4-4.----------------------------------------
B---------------3---------3/5-5.----------------------------------------
G---------2---------2-----2/4-4.----------------3---------3-------------
D-----4-------4-----------4/6-6.----------4---------4-------4-----------
A-4h5---5-----------------------------4-------4-------4-------4---------
E---------------------------------2-------------------------------------


Fig. 2

e-----------------------------------------------------------------------
B-9----7--------9------4---5-----9-----7-----------9----5---------------
G-9----8--------9------4---6-----9-----8-----------9----6---------------
D-9----9--------11-----6---7-----9-----9-----------11---7-----7---------
A-7----9--------11-----6---7-----7-----9-----------11---7---------------
E-----------------------------------------------------------------------


e-----------------------------------------------------------------------
B-9----7---------------4---5-----9-----7-----------9----5---------------
G-9----8------7/9------4---6-----9-----8-----------9----6---6-6---------
D-9----9------9/11-----6---7-----9-----9-----------11---7---7-7---------
A-7----9------9/11-----6---7-----7-----9-----------11---7---7-7---------
E-----------------------------------------------------------------------


e-----------------------------------------------------------------------
B-9---------------------------------------------------------------------
G-8---------------------------------------------------------------------
D-9---------------------------------------------------------------------
A-7---------------------------------------------------------------------
E-----------------------------------------------------------------------


Fig. 3

e-----------------------------------------------------------------------
B-----9----------------------------9----9.-4---5---5h7p5-5--------------
G-----9-------------8h9p8----------9----9.-4---6---6-----6--------------
D-9---9-x-----------x-----9---9/11---11----6---7---x--------------------
A-7-----x---9-----9-9---------9/11---11----6---7---7--------------------
E-----------7-----7-----------------------------------------------------


e-----------------------------------------------------------------------
B-------9---------------------------9----9.--5-----5--------------------
G-------9------------8h9p8----------9----9.--6-----6--------------------
D-------9------------------9---9/11---11-----7-----7--------------------
A-/11-----11\9-9---9-------------------------7-----7--------------------
E--------------7---7----------------------------------------------------


e------------------------------------------------------5h7p5------------
B-------9---------------------------9----9.--4-----5---------5----------
G-------9------------8h9p8----------9----9.--4-----6--------------------
D-------9------------x-----9---9/11---11-----6-----7--------------------
A-/11-----11\9-9---9-9--------------------------------------------------
E--------------7---7----------------------------------------------------


e-----------------------------------------------------------------------
B-------9---------------------------9--------5------------x-------------
G-------9------------8h9p8----------9---x----6------------x-------------
D-------9------------x-----9---9/11-----x----7------------x-------------
A-/11-----11\9-9---9-9------------------x----7------------x-------------
E--------------7---7----------------------------------------------------


e-----------------------------------------------------------------------
B-9---------------------------------------------------------------------
G-8---------------------------------------------------------------------
D-9---------------------------------------------------------------------
A-7---------------------------------------------------------------------
E-----------------------------------------------------------------------


Fig. 4

e-----------------------------------11-11-11-11----------9---9----------
B-----10--------9---9-------9-------12-12-12-12-----10---10--10---------
G-x-x-11----x---9---9-------9---x---11-11-11-11-x---11---11--11-x-x-----
D-x-x-11----x---9---9-------9---x---9--9--9--9--x---11---11--11-x-x-----
A-x-x-9-----x---7---7-------7---x---------------x---9-----------x-x-----
E-----------------------------------------------------------------------


e-----------------------------------11-11-11-11----------9---9----------
B-----10--------9---9-------9-------12-12-12-12-----10---10--10---------
G-x-x-11----x---9---9-------9---x---11-11-11-11-x---11---11--11-x-x-----
D-x-x-11----x---9---9-------9---x---9--9--9--9--x---11---11--11-x-x-----
A-x-x-9-----x---7---7-------7---x---------------x---9-----------x-x-----
E-----------------------------------------------------------------------


e-----------------------------------11-11-11-11----------9---9----------
B-----10--------9---9-------9-------12-12-12-12-----10---10--10---------
G-x-x-11----x---9---9-------9---x---11-11-11-11-x---11---11--11-x-x-----
D-x-x-11----x---9---9-------9---x---9--9--9--9--x---11---11--11-x-x-----
A-x-x-9-----x---7---7-------7---x---------------x---9-----------x-x-----
E-----------------------------------------------------------------------


e-----------------------------------11-11-11-11-------------------------
B-----10--------9---9---------------12-12-12-12-----10------------------
G-x-x-11----x---9---9---------------11-11-11-11-x---11------------------
D-x-x-11----x---9---9---------------9--9--9--9--x---11------------------
A-x-x-9-----x---7---7---------------------------x---9-------------------
E-----------------------------------------------------------------------


Fig. 5

e-0----------0----------0-------0-----0.--0------0---0------------------
B-5----------5----------5-------0h3---3.--0------1---1---x-x------------
G-6----------5------5---5---x-x-4-----4.--2------2---2---x-x------------
D-7------7---7------7---7---x-x-5-----5.--3------3---3---x-x------------
A-7------7---7------7---7-------5-----5.--3------3---3------------------
E-----------------------------------------------------------------------


e-0----0-----0----------0-------0-----0.--0------0---0------------------
B-5----5-----5----------5-------0h3---3.--0------1---1---x-x------------
G-6----6-6.--5------5---5---x-x-4-----4.--2------2---2---x-x------------
D-7----7-7.--7------7---7---x-x-5-----5.--3------3---3---x-x------------
A-7------7.--7------7---7-------5-----5.--3------3---3------------------
E-----------------------------------------------------------------------


e-0----0-----0----0-----0-------0-----0.--0------0---0------------------
B-5----5-----5----5-----5-------0h3---3.--0------1---1-----x------------
G-6----6-6.--5----5-5---5---x-x-4-----4.--2------2---2-----x------------
D-7----7-7.--7----7-7---7---x-x-5-----5.--3------3---3-----x------------
A-7------7.--7------7---7-------5-----5.--3------3---3------------------
E-----------------------------------------------------------------------


e-12-12-12-12-12-12-12-12----12-12-12-12-12-----------------------------
B-10-10-10-10-10-10-10-10----10-10-10-10-10-x-x-------------------------
G-10-10-10-10-10-10-10-10----10-10-10-10-10-x-x-------------------------
D-10-10-10-10-10-10-10-10----10-10-10-10-10-x-x-------------------------
A-8--8--8--8--8--8--8--8-----8--8--8--8--8------------------------------
E-----------------------------------------------------------------------


e-10-10-10-10-10-10------14-14-14-14-14-14------------------------------
B-9--9--9--9--9--9--x-x--12-12-12-12-12-12-x-x--------------------------
G-9--9--9--9--9--9--x-x--12-12-12-12-12-12-x-x--------------------------
D-9--9--9--9--9--9--x-x--12-12-12-12-12-12-x-x--------------------------
A-7--7--7--7--7--7-------10-10-10-10-10-10------------------------------
E-----------------------------------------------------------------------


e-0----0-----0----------0-------0-----0.--0------0---0------------------
B-5----5-----5----------5-------0h3---3.--0------1---1---x-x------------
G-6----6-6.--5------5---5---x-x-4-----4.--2------2---2---x-x------------
D-7----7-7.--7------7---7---x-x-5-----5.--3------3---3---x-x------------
A-7------7.--7------7---7-------5-----5.--3------3---3------------------
E-----------------------------------------------------------------------


e-0----0-----0----------0-------0-----0.--0------0---0------------------
B-5----5-----5----------5-------0h3---3.--0------1---1---x-x------------
G-6----6-6.--5------5---5---x-x-4-----4.--2------2---2---x-x------------
D-7----7-7.--7------7---7---x-x-5-----5.--3------3---3---x-x------------
A-7------7.--7------7---7-------5-----5.--3------3---3------------------
E-----------------------------------------------------------------------


e-0----0-----0----------0-------0-----0.--0------0---0------------------
B-5----5-----5----------5-------0h3---3.--0------1---1---x-x------------
G-6----6-6.--5------5---5---x-x-4-----4.--2------2---2---x-x------------
D-7----7-7.--7------7---7---x-x-5-----5.--3------3---3---x-x------------
A-7------7.--7------7---7-------5-----5.--3------3---3------------------
E-----------------------------------------------------------------------


e-0----0-----0----0-----0-------0-----0.--0------0---0------------------
B-5----5-----5----5-----5-------0h3---3.--0------1---1---x-x------------
G-6----6-6.--5----5-5---5---x-x-4-----4.--2------2---2---x-x------------
D-7----7-7.--7----7-7---7---x-x-5-----5.--3------3---3---x-x------------
A-7------7.--7------7---7-------5-----5.--3------3---3------------------
E-----------------------------------------------------------------------


e-0----------0------------------0---0-0.--0------0---1h3p1-0------------
B-5----------5------------------0h3-3-3.--0------1----------------------
G-6----------5----5---5h7p5-----4---4-4.--2------2----------------------
D-7------7---7----7---------7\--5---5-5.--3------3----------------------
A-7------7---7----7-----------------------------------------------------
E-----------------------------------------------------------------------


e-----0------0------------------0---0-0.--0----------0------------------
B-----5------5------------------0h3-3-3.--0h1--------1-------1----------
G-----6--6---5----5---5h7p5-----4---4-4.--2----------2---2---2----------
D-/7-----7---7----7---------7\--5---5-5.--3--------------3---3----------
A-----------------------------------------------------------------------
E-----------------------------------------------------------------------


e-------0----0--------5h7p5-----0---0-0.--0------0---1h3p1-0------------
B-------5-x--5--------5-----5\--0h3-3-3.--0------1----------------------
G-----6-6-x--5----5-------------4---4-4.--2------2----------------------
D-/7--7-7-x--7----7-------------5---5-5.--3------3----------------------
A-----------------------------------------------------------------------
E-----------------------------------------------------------------------


e-----0------0------------------0---0-0.--0----------0------------------
B-----5------5------------------0h3-3-3.--0----------1------------------
G-----6--6---5----5---5h7p5-----4---4-4.--2----------2------------------
D-/7-----7---7----7---------7\--5---5-5.--3-----------------------------
A-----------------------------------------------------------------------
E-----------------------------------------------------------------------


e-0---------------------------------------------------------------------
B-2---------------------------------------------------------------------
G-2---------------------------------------------------------------------
D-2---------------------------------------------------------------------
A-0---------------------------------------------------------------------
E-----------------------------------------------------------------------


Original Intro (Album Version)

e-----------------------------------------------------------------------
B-3-------------3-----------------2-------------------------------------
G---------2---------2---------------------------3-----------------------
D-----4-------4---------------------------4---------4-----4-2-----------
A-5-----------------------4-2---------4-------4---------------5-2-------
E-----------------------------5-4-2-------------------------------------


e-----------------------------------------------------------------------
B-3------------3h5p3----------------------------------------------------
G---------2---------2---------------------------3-----------------------
D-----4-------4-----------4/6-6.----------4---------4-----4-2-----------
A-4h5---5-----------------5/7-7.------4-------4---------------5-2-------
E---------------------------------2-------------------------------------


e-----------------------------------------------------------------------
B-3-------------3-----------------2-------------------------------------
G---------2---------2---------------------------3-----------------------
D-----4-------4---------------------------4---------4-----4-2-----------
A-4h5---5-----------------4-2---------4-------4---------------5-2-------
E-----------------------------5-4-2-------------------------------------


e-----------------------------------------------------------------------
B--------------3h5p3----------------------------------------------------
G---------2---------2---------------------------3---------3-------------
D-----4-------4-----------4/6-6.----------4---------4-------4-----------
A-4h5---5-----------------5/7-7.------4-------4-------4-------4---------
E---------------------------------2-------------------------------------