20130111

WANTED DEAD OR ALIVE TAB (SOLO)


hbwold plays a cool guitar cover of Wanted Dead Or Alive guitar solo by Bon Jovi.
Thanks hbwold for sharing it, your guitar is awesome.  
See the TAB under the video.


BON JOVI WANTED DEAD OR ALIVE SOLO TAB


e-----------------------------------------------------------------------
B-----------------------------------------------------------------------
G-----------------------------------------------------------------------
D--------------------7\5-5/7~-----7\5-5/7~---------------3--------------
A--------------------5\3-3/5~-----5\3-3/5~-------0-3'--5----------------
E-\\\\\\\\\\\\\---------------------------------------------------------


e-----------------------------------------------------------------------
B-----------------------------------------------------------------------
G-----------------------------------------------------------------------
D-5""".--5""".--5""".--5(7)(5)-3~~--------------------------------------
A-----------------------------------------------------------------------
E-----------------------------------------------------------------------


e-------------13-15-15(17)------(17)(15)p13-15(17)~~~~~~----------------
B-------13-15-----------------------------------------------------------
G-12-14-----------------------------------------------------------------
D-----------------------------------------------------------------------
A-----------------------------------------------------------------------
E----------------------------------------------------------\\\\\\\------



e-----------------------------------------------------------------------
B-----------------------------------------------------------------------
G-----------------------------------------------------------------------
D---5"""------3---7\5-5/7~----------------------------------------------
A-0---------------5\3-3/5~----------------------------------------------
E----------------------------------------------------------\\\\\\\------


e-----------------------------------------------------------------------
B-----------------------------------------------------------------------
G-----------------------------------------------------------------------
D-----3'----------3-5-5(7)---5-3~~--------------------3-5(7)---5-3~~----
A-3-5-----5-0-3-5----------------------5\\--//5---3-5-------------------
E-----------------------------------------------------------------------
              x x x x                    tremolo bar

e----------------------------13-----------------------------------------
B----------------13----------------------13-----------------------------
G-10-12-12(14)------12(14)------12(14)------(14)(12)-10~~---------------
D-----------------------------------------------------------------------
A-----------------------------------------------------------------------
E-----------------------------------------------------------------------


e-----------------------------------------------------------------------
B-------------3~~~~~~~~~~-----------------------------------------------
G-------------2~~~~~~~~~~-----------------------------------------------
D-7-5---------0~~~~~~~~~~-----------------------------------------------
A-5-3-7-5-3-2-0~~~~~~~~~~-----------------------------------------------
E-----5-3-1-0-----------------------------------------------------------
  x x x x x x